Wolf Alice

My Love Is Cool

Wolf Alice

tabs

by  GUSTSILVA

save to print version add songbook text version e-mail correct tuner
chordsukulelecavacokeyboardtabbassdrumsharmonicaflute Guitar Pro
close

there isn't a video lesson for this song

chords

My Love Is Cool

	  		
Intro:
  
strum these notes together 4x ,  
strum method: down, down, down, up 

e|---------------------------------------------------------------------------| 
B|---------------------------------------------------------------------------| 
G|------------------------------------------9--------------------------------| 
D|----------------------------------------------11---------------------------| 
A|-------------------------------------------------12------------------------| 
E|---------------------------------------------------------------------------| 
  
After that then you play these notes 
Strum once and bend downward 
e|---------------------------------------------------------------------------| 
B|---------------------------------------------------------------------------| 
G|----------------------------------------------11---------------------------| 
D|------------------------------------------9--------------------------------| 
A|----------------------------------------------11---------------------------| 
E|---------------------------------------------------------------------------|  

Strum 2x 
e|---------------------------------------------------------------------------| 
B|---------------------------------------------------------------------------| 
G|----------9----------------------------------------------------------------| 
D|----------9----------------------------------------------------------------| 
A|---------------------------------------------------------------------------| 
E|---------------------------------------------------------------------------| 
  
after playing all those notes twice 
here is the Chorus  

"Teach me, teach me, teach me rock 'n' roll" 

e|---------------------------------------------------------------------------| 
B|---------------------------------------------------------------------------| 
G|---------------------------------------------------------------------------| 
D|---------------------------------------------------------------------------| 
A|-11---/---9-----\--11----/--9---\---11-11---9---9--------------------------| 
E|--12--/----10---\---12---/---10--\---12-12---10---10-----------------------| 
  
 Then strum these 5x 
e|---------------------------------------------------------------------------| 
B|---------------------------------------------------------------------------| 
G|---------------------------------------------------------------------------| 
D|---------------------------------------------------------------------------| 
A|---4-----------------------------------------------------------------------| 
E|----5----------------------------------------------------------------------| 

after repeating that process twice here are the tabs 
for when she says: 
"MY LOVE IS COOL MY LOVE BENDS RULES" 
  
and after playing an open E and the 7th fret on A 
slide up to the 3rd fret of E and 2nd fret of A and  
strum them both 9 times and after that play together 
open fret E and 2nd fret A and bend the 2nd fret while 
playing  

e|---------------------------------------------------------------------------| 
B|---------------------------------------------------------------------------| 
G|---------------------------------------------------------------------------| 
D|---------------------------------------------------------------------------| 
A|--2---4---5---7----/---2--4---\--7------/---2----------2b------------------| 
E|--0---0---0---0--------0--0------0-----------3---------0-------------------| 
  
 repeat 

 really hope that helps, I learned it by ear and had fun 
 with it, cheers. 
  
 feel free to add any corrections 


************************************ 

| /   slide up 
| \   slide down 
| h   hammer-on 
| p   pull-off 
| ~   vibrato 
| +   harmonic 
| x   Mute note 
| b   Bend 
| pb  Pre-bend 
| br  Bend release 
| pbr Pre-bend release 
| brb Bend release bend 

************************************ 
		  

Full key step upFull key step up
Half key step upHalf key step up
Half key step downHalf key step down
Full key step downFull key step down
auto scroll beats size up size down change color hide chords drawings
tab show chords e-chords YouTube Clip e-chords hide all tabs e-chords go to top tab

share