White Stripes

We Are Going To Be Freinds Tab

White Stripes

Difficulty: BeginnerBeginner

tuner correct add songbook print version text version save to e-mail
chordsukulelecavacokeyboardtabbassdrumsharmonicsflute Guitar Pro
close

there isn't a video lesson for this song

request
chords

We Are Going To Be Freinds

  		Standard Tuning: 
  
Intro: (0-5 sec) 
E ------------------  
B -----0---0---0---- 
G -0-0---0---0---0-- 
D ------------------ 
A ------------------  
E 3-3-3-3-3-3-3-3-3-  
 
Verse: 1 & 2 (6-50 sec) 
  Fall is here... 
  Walk with me... 
E ---------------------------------2-0-------------2-0-------------------- 
B -0---0---0---0---1---1-----0---0-----3-3-0---0-0-----3-3---0---0---0---0 
G ---0---0---0---0---0---0-0---0-------------0-------------0---0---0---0-- 
D --------------------------------0-0-------------0-0--------------------- 
A ----------------3-3-3-3-------------3-3-------------3-3----------------- 
E 3-3-3-3-3-3-3-3---------3-3-3-3---------3-3-3-3---------3-3-3-3-3-3-3-3- 
 
Verse: 3 (51-1.12) 
  Here we are... 
E ---------------------------------2-0-------------2-0-------------------- 
B ---0---0---0---0-1---1-----0---0-----3-3---0---0-----3-3---3---3-3---3-3 
G -0---0---0---0-----0---0-0---0-----------0---0-----------0---0-----0---- 
D --------------------------------0-0-------------0-0--------------------- 
A ----------------3-3-3-3-------------3-3-------------3-3----------------- 
E 3-3-3-3-3-3-3-3---------3-3-3-3---------3-3-3-3---------3-3-3-3-3-3-3-3- 
 
Verse: 4 (1.13-1.34) 
  Numbers letters... 
E ---------------------------------2-0-------------2-0------------------- 
B ---3---3---3---0-1---1-----0---0-----3-3---3---3-----3-3---3---3---3---0 
G -0---0---0---0-----0---0-0---0-----------0---0-----------0---0---0---0-- 
D --------------------------------0-0-------------0-0-------------------- 
A ----------------3-3-3-3-------------3-3-------------3-3----------------- 
E 3-3-3-3-3-3-3-3---------3-3-3-3---------3-3-3-3---------3-3-3-3-3-3-3-3- 
 
Bridge: (1.35-1.53) 
  And we don't notice... 
E ---------------------------------5---5-5---5--------------2--- 
B -1---1-----0---0-1---1-----0---0---2-----2---2-0-1---1--3---3- 
G ---0---0-0---0-----0---0-0---0---------------------0---------- 
D -------------------------------------------------------0-0-0-0 
A 3-3-3-3---------3-3-3-3---------0-0-0-0-0-0-0-0-3-3-3-3------- 
E --------3-3-3-3---------3-3-3-3------------------------------- 
 
Verse: 5 and Ending (1.54-2.20) 
  Tonight I'll dream... 
E ---------------------------------2-0-------------2-0-------------2-0----3 
B -3---3-3-3-3-3-0-1---1---0-0-0-0-----3-3---3---------3-3---3---3-----3-33 
G ---0---------------0---0-----------------0---0-0---------0---0----------- 
D --------------------------------0-0-------------0-0-------------0-0------ 
A ----------------3-3-3-3-------------3-3-------------3-3-------------3-3-2 
E 3-3-3-3-3-3-3-3---------3-3-3-3---------3-3-3-3---------3-3-3-3--------- 
	  

Search Paypal
auto scroll beats size up size down change color hide chords drawings
tab show chords e-chords YouTube Clip e-chords hide all tabs e-chords go to top tab

share with facebook