White Stripes

Jumble Jumble Tab

White Stripes

Difficulty: nolevelnolevel

tuner correct add songbook print version text version save to e-mail
chordsukulelecavacokeyboardtabbassdrumsharmonicsflute Guitar Pro
close

there isn't a video lesson for this song

request
chords

Jumble Jumble

  		Tabbed By: illkillyouinthenighthahaha 
          (i'll kill you in the night ha ha ha) 
 
 
     E E E E E E Q 
E  ----------------- 
B  ----------------- 
G  ----------------- 
D  --4-4-2-2-4-4-2-- 1x 
A  --4-4-2-2-4-4-2-- 
E  --2-2-0-0-2-2-0-- 
 
     E E E E E E Q         E E E E E E Q 
E  -----------------14-12b----------------14-12b-- 
B  ----------------------------------------------- 
G  ----------------------------------------------- 
D  --4-4-2-2-4-4-2---------4-4-2-2-4-4-2---------- 1x 
A  --4-4-2-2-4-4-2---------4-4-2-2-4-4-2---------- 
E  --2-2-0-0-2-2-0---------2-2-0-0-2-2-0---------- 
 
     E E E E E E Q 
E  ----------------- 
B  ----------------- 
G  ----------------- 
D  --4-4-2-2-4-4-2--   3x 
A  --4-4-2-2-4-4-2-- 
E  --2-2-0-0-2-2-0-- 
 
     E E E E E E Q 
E  ----------------- 
B  ----------------- 
G  ----------------- 
D  --9-9-7-7-9-9-7--   1x 
A  --9-9-7-7-9-9-7-- 
E  --7-7-5-5-7-7-5-- 
 
     E E E E E E Q 
E  ----------------- 
B  ----------------- 
G  ----------------- 
D  --4-4-2-2-4-4-2--   1x 
A  --4-4-2-2-4-4-2-- 
E  --2-2-0-0-2-2-0-- 
 
 
      H   H 
E  ------------ 
B  ------------ 
G  ------------ 
D  --11~~-9~~-- 
A  --11~~-9~~-- 
E  ---9~~-7~~-- 
 
 
     E E E E E E Q 
E  ----------------- 
B  ----------------- 
G  ----------------- 
D  --4-4-2-2-4-4-2--   1x 
A  --4-4-2-2-4-4-2-- 
E  --2-2-0-0-2-2-0-- 
 
 
E  ----14-12b-14-12b-14-12b-14-12b-14-12b- 
B  --------------------------------------- 
G  --------------------------------------- 
D  --4------------------------------------    4x 
A  --4------------------------------------ 
E  --2------------------------------------ 
 
     E E E E E E Q          
E  -----------------14-12b-- 
B  ------------------------- 
G  ------------------------- 
D  --4-4-2-2-4-4-2----------   1x 
A  --4-4-2-2-4-4-2---------- 
E  --2-2-0-0-2-2-0---------- 
 
     E E E E E E Q 
E  ----------------- 
B  ----------------- 
G  ----------------- 
D  --4-4-2-2-4-4-2--   5x 
A  --4-4-2-2-4-4-2-- 
E  --2-2-0-0-2-2-0-- 
 
     E E E E E E Q 
E  ----------------- 
B  ----------------- 
G  ----------------- 
D  --9-9-7-7-9-9-7--   1x 
A  --9-9-7-7-9-9-7-- 
E  --7-7-5-5-7-7-5-- 
 
     E E E E E E Q 
E  ----------------- 
B  ----------------- 
G  ----------------- 
D  --4-4-2-2-4-4-2--   1x 
A  --4-4-2-2-4-4-2-- 
E  --2-2-0-0-2-2-0-- 
 
      H   H 
E  ------------ 
B  ------------ 
G  ------------ 
D  --11~~-9~~-- 
A  --11~~-9~~-- 
E  ---9~~-7~~-- 
 
     E E E E E E Q 
E  ----------------- 
B  ----------------- 
G  ----------------- 
D  --4-4-2-2-4-4-2--   1x 
A  --4-4-2-2-4-4-2-- 
E  --2-2-0-0-2-2-0-- 
 
 
E  ----14-12b-14-12b-14-12b-14-12b-14-12b- 
B  --------------------------------------- 
G  --------------------------------------- 
D  --4------------------------------------    3x 
A  --4------------------------------------ 
E  --2------------------------------------ 
 
E  ----14-12b-14-12b-14-12b-----17b(19)-(17)-(19)-14-- 
B  -------------------------13b----------------------- 
G  --------------------------------------------------- 
D  --4------------------------------------------------    4x 
A  --4------------------------------------------------ 
E  --2------------------------------------------------ 
 
     E E E E E E Q 
E  -----------------17-19-- 
B  ------------------------ 
G  ------------------------ 
D  --4-4-2-2-4-4-2---------  1x 
A  --4-4-2-2-4-4-2--------- 
E  --2-2-0-0-2-2-0--------- 
 
     E E E E E E Q 
E  ----------------- 
B  ----------------- 
G  ----------------- 
D  --4-4-2-2-4-4-2--   3x 
A  --4-4-2-2-4-4-2-- 
E  --2-2-0-0-2-2-0-- 
 
     E E E E E E Q 
E  ----------------- 
B  ----------------- 
G  ----------------- 
D  --9-9-7-7-9-9-7--   1x 
A  --9-9-7-7-9-9-7-- 
E  --7-7-5-5-7-7-5-- 
      
     E E E E E E Q 
E  ----------------- 
B  ----------------- 
G  ----------------- 
D  --4-4-2-2-4-4-2--   1x 
A  --4-4-2-2-4-4-2-- 
E  --2-2-0-0-2-2-0-- 
       
      H   H 
E  ------------ 
B  ------------ 
G  ------------ 
D  --11~~-9~~-- 
A  --11~~-9~~-- 
E  ---9~~-7~~-- 
 
     E E E E E E Q 
E  ----------------- 
B  ----------------- 
G  ----------------- 
D  --4-4-2-2-4-4-2--   1x 
A  --4-4-2-2-4-4-2-- 
E  --2-2-0-0-2-2-0-- 
 
E  -------- 
B  -------- 
G  -------- 
D  --4~~~-- 
A  --4~~~-- 
E  --2~~~-- 
 

	  

Search Paypal
auto scroll beats size up size down change color hide chords drawings
tab show chords e-chords YouTube Clip e-chords hide all tabs e-chords go to top tab

share with facebook