White Stripes

I Fell In Love With A Girl Tab

White Stripes

Difficulty: nolevelnolevel

tuner correct add songbook print version text version save to e-mail
chordsukulelecavacokeyboardtabbassdrumsharmonicsflute Guitar Pro
close

there isn't a video lesson for this song

request
chords

I Fell In Love With A Girl

  		Tabs by:bo fisher 
White Stripes-i fell in love with a girl 
Part1              
Standared tuning 
|-------------------| 
|-------------------| 
|-------------------| 
|9----7----12----2--| 
|9----7----12----2--| 
|7----5----10----0--| 
 
|-------------------| 
|-------------------| 
|-------------------| 
|9----7----12----2--| 
|9----7----12----2--| 
|7----5----10----0--| 
 
Part2 
|--------------| 
|--------------| 
|--------------| 
|4----7----12-2| 
|4----7----12-2| 
|2----5----10-0| 
 
|--------------| 
|--------------| 
|--------------| 
|4----7----12-2| 
|4----7----12-2| 
|2----5----10-0| 
order: 
part1x2 
part2x2 
part1x2 
part2x2 
part1x2 
part2x2 
part1x2 
part2x2 
part1x2 
part2x2 
part1x2 
 

	  

Search Paypal
auto scroll beats size up size down change color hide chords drawings
tab show chords e-chords YouTube Clip e-chords hide all tabs e-chords go to top tab

share with facebook