White Stripes

Fell in Love with a Girl Tab

White Stripes

Difficulty: EasyEasy

tuner correct add songbook print version text version save to e-mail
chordsukulelecavacokeyboardtabbassdrumsharmonicsflute Guitar Pro
close

there isn't a video lesson for this song

request
chords

Fell in Love with a Girl

  		
Riff A
      B5                  A5
-------------------------------------------
-------------------------------------------
-----4---4-4----4-4-4----------------------
-----4---4-4----4-4-4----7---7-7---7-7-7---
-----2---2-2----2-2-2----7---7-7---7-7-7---
-------------------------5---5-5---5-5-5---

      D5                 E5
------------------------------------------
------------------------------------------
-----7---7-7---7-7-7----------------------
-----7---7-7---7-7-7----2---2-2---2-2-2---
-----5---5-5---5-5-5----2---2-2---2-2-2---
------------------------0---0-0---0-0-0---


Riff B
      F#5                A5
------------------------------------------
------------------------------------------
------------------------------------------
-----4---4-4---4-4-4----7---7-7---7-7-7---
-----4---4-4---4-4-4----7---7-7---7-7-7---
-----2---2-2---2-2-2----5---5-5---5-5-5---

      D5                 E5           
------------------------------------------
------------------------------------------
-----7---7-7---7-7-7----------------------
-----7---7-7---7-7-7----2---2-2---2-2-2---
-----5---5-5---5-5-5----2---2-2---2-2-2---
------------------------0---0-0---0-0-0---


Use this for the parts where  the guitar stops
 (lines 'bobby says it fine he don't consider it cheating' and ' I said it once before but it bears repeating)
      F#5                A5                F#5
---------------------------------------------
---------------------------------------------
---------------------------------------------
-----4---4-4---4-4-4----7---7-7---7-7-7---4--
-----4---4-4---4-4-4----7---7-7---7-7-7---4--
-----2---2-2---2-2-2----5---5-5---5-5-5---2--


*Riff A*
Fell in love with a girl
fell in love once and almost completely
she's in love with the world
but sometimes these feelings
can be so misleading
*Riff B*
she turns and says "are you alright?"
I said "I must be fine cause my heart's still beating"
She says "come and kiss me by the riverside,bobby says it's fine he don't consider it cheating"

*Riff A*
Red hair with a curl
mellow roll for the flavor
and the eyes for peeping
can't keep away from the girl
these two sides of my brain
need to have a meeting
*Riff B*
can't think of anything to do
my left brain knows that
all love is fleeting
she's just looking for something new
and I said it once before
but it bears repeating
*end on chord A5*
	  

Full key step upFull key step up
Half key step upHalf key step up
Half key step downHalf key step down
Full key step downFull key step down
Search Paypal
auto scroll beats size up size down change color hide chords drawings
tab show chords e-chords YouTube Clip e-chords hide all tabs e-chords go to top tab

share with facebook