White Stripes

Dead Leaves and the Dirty Ground Tab

White Stripes

Difficulty: BeginnerBeginner

tuner correct add songbook print version text version save to e-mail
chordsukulelecavacokeyboardtabbassdrumsharmonicsflute Guitar Pro
close

there isn't a video lesson for this song

request
chords

Dead Leaves and the Dirty Ground

  		 
Intro:
       A                      G               F#          F           A
E-------------------------------------------------------------   
B------------------------------------------------------------
G--------------------------------------------------------------
D--------------------------------------------------------------
A---------------------------------------------------------------
E-----5---5------5-0-3---3---3-0-2----2-0-1----1-0-5-----

Riff before lyrics:
       A                      G                               C                         D                            A
E---------------------------------------------------------------------------------2----------------------------repeat
B------------3P2-------------------------------------------------------------3------------2------------------
G-------------------------------------0------------------0---------------2----------------2-----------------
D-------2------------------------0------------------2---------------0---------------------2-----------------
A----0----------------------2-------------------3-----------------------------------------0-------------------
E------------------------3-------------------------------------------------------------------------------------

Chords between verses
        A                                   G                                   C               D            A  
E--------------------------------------------------------------------------------------------------------
B--------------------------------------------------------------------------------------------------------
G-------------------------------------------------------------5----x-----7----x------------------------
D----7----x--x---7-----x--x-----5---x--x----5----x--x---5----x-----7----x-----7------------------
A----7----x--x---7-----x--x-----5---x--x----5----x--x---3----x-----5----x-----7-----------------
E----5----x--x---5-----x--x-----3---x--x----3----x--x----------------------------5-----------------
	  

Full key step upFull key step up
Half key step upHalf key step up
Half key step downHalf key step down
Full key step downFull key step down
Search Paypal
auto scroll beats size up size down change color hide chords drawings
tab show chords e-chords YouTube Clip e-chords hide all tabs e-chords go to top tab

share with facebook