White Shoes & The Couples Company

home > White Shoes & The ...

Kisah Dari Selatan Jakarta Tab

White Shoes & The Couples Company

Difficulty: nolevelnolevel

by paulantunes

tuner correct add songbook print version text version save to e-mail
chordsukulelecavacokeyboardtabbassdrumsharmonicsflute Guitar Pro
chords

Kisah Dari Selatan Jakarta

	  
     E  E  E  E  E  E  S   S  E   E  Q       H         S   S  E   E   Q      
E||---------------------------------------|--9-----------------------------| 
B||---------------------------------------|--9-----------------------------| 
G||--------------------9s-11-11--10--9----|--9--------11s-13-13--12--11----| 
D||-----------6--7--9---------------------|--------------------------------| 
A||-----7--9------------------------------|--------------------------------| 
E||---------------------------------------|--------------------------------| 


   |--------3---------|  |---3--| |--3--|    
      H         S  S  E   Q    E  Q    E    
E||---9--------12-------------------------| 
B||--10-----------14----------------------| 
G||--11--------------14--11----L--L-------| 
D||------------------------------------9--| 
A||---------------------------------------| 
E||---------------------------------------| 


  |---3--| |---3---|  |-3-| |-3-| |--3--|    
     Q   E  E  E   E  E   S S S S E  E  E    
E||----------------------------------------| 
B||----------------------10-9-7------------| 
G||-----11--L-----11------------9-7--6-----| 
D||--L---------9------------------------9--| 
A||----------------------------------------| 
E||----------------------------------------| 


  |----3-----| |-3-|  |-3-|  |----3---|          
     Q    S  S E   S   S  E   E   E   E   Q      
E||----------------------12--14--14--13--12----| 
B||---------------12s-14-----------------------| 
G||--------------------------------------------| 
D||--9----6s-7-L-------------------------------| 
A||--------------------------------------------| 
E||--------------------------------------------| 


  |----3---| |----3----|  |------3------| |---3---|    
     Q    E   E   E   E    S    S   E   E   Q    E    
E||--L--------------------14s--16--16--15--14----L--| 
B||------14--14--13--14-----------------------------| 
G||-------------------------------------------------| 
D||-------------------------------------------------| 
A||-------------------------------------------------| 
E||-------------------------------------------------| 


   |------3-----|        3   3    3                                 
      E  E   Q     Q     S   Q    Q        H         S   Q.     S   
E||---L--L--12--------------------------|-------------------------| 
B||---------------14----14s-15----L\----|-----------12s-13------L-| 
G||-------------------------------------|-------------------------| 
D||-------------------------------------|-------------------------| 
A||-------------------------------------|-------------------------| 
E||-------------------------------------|-------------------------| 

              NH          
   S    E.     H           
E||-----------12--------|| 
B||----12-----12--------|| 
G||---------------------|| 
D||---------------------|| 
A||---------------------|| 
E||---------------------|| 



************************************ 

| H   Half note 
| Q   Quarter note 
| E   8th note 
| S   16th note 
| NH  Natural harmonic 
| h   Hammer-on 
| s   Legato slide 
| L   Tied note 
| /   Slide up 
| \   Slide down 

************************************ 
	  

there isn't a video lesson for this song

request
Full key step upFull key step up
Half key step upHalf key step up
Half key step downHalf key step down
Full key step downFull key step down
Search
auto scroll beats size up size down change color hide chords drawings
tab show chords e-chords YouTube Clip e-chords hide all tabs e-chords go to top tab