Wheatus

Teenage Dirtbag (ver. 3)

Wheatus

tabs Beginner beginner

save to print version add songbook text version e-mail correct tuner
chordsukulelecavacokeyboardtabbassdrumsharmonicaflute Guitar Pro
close

there isn't a video lesson for this song

chords

Teenage Dirtbag (ver. 3)

	  		VERSE (acoustic - fingerpicked) 
 
  Her name is Noel... 
E|--0--------------0--------------0--------------0--------| 
B|--0--------------0--------------0--------------0--------| 
G|--------------------------------------------------------| 
D|--------------------------------------------------------| 
A|--------------------2--2--------------------------0--0--| 
E|-----0--0--------------------------0--0-----------------| 
 
  But she doesn't know who I am... 
E|--0--------------0--------------0--------------0--------| 
B|--0--------------0--------------0--------------0--------| 
G|--------------------------------------------------------| 
D|--------------------------------------------------------| 
A|-----4--4-----------0--0-----------2--2-----------2--2--| 
E|--------------------------------------------------------| 
 
 
CHORUS 
 
  Cuz I'm just a teenage dirtbag baby... 
E|--------------------------------------------------| 
B|--------------------------------------------------| 
G|--------------2--2--------4--4--------------------| 
D|--2--2--------2--2--------4--4-----------6--------| x3 
A|--2--2--------0--0--------2--2-------/4--------6--| 
E|--0--0--------------------------------------4-----| 
 
E|-------------------------------------------------------------| 
B|-------------------------------------------------------------| 
G|--------------2--2--------4--4-------------------------------| 
D|--2--2--------2--2--------4--4-----------6-------------------| 
A|--2--2--------0--0--------2--2-------/4--------6-----7-----9-| 
E|--0--0--------------------------------------4-----5-----7----| 
 
 
BRIDGE 
 
  Oh yeah... 
E|--0--0-----0--| 
B|--0--0-----0--| 
G|--1--1--4--2--| 
D|--2--2--4--2--| x3 
A|--2--2--2--0--| 
E|--0--0--------| 
 
E|--------------------------| 
B|--------------------------| 
G|--------------------------| 
D|-----6--------------------| 
A|-/4--------6-----7-----9--| 
E|--------4-----5-----7-----| 
 
 
QUIET PART 
 
  I've got two tickets to Iron Maiden baby... 
E|---------------------------------------------------| 
B|---------------------------------------------------| 
G|--------------2--2--2--2--4--4--4--4---------------| 
D|--2--2--2--2--2--2--2--2--4--4--4--4------6--------| x3 
A|--2--2--2--2--0--0--0--0--2--2--2--2--/4--------6--| 
E|--0--0--0--0---------------------------------4-----| 
p.m................................... 
 
E|--------------------------------------------------------------| 
B|--------------------------------------------------------------| 
G|--------------2--2--2--2--4--4--4--4--------------------------| 
D|--2--2--2--2--2--2--2--2--4--4--4--4------6-------------------| 
A|--2--2--2--2--0--0--0--0--2--2--2--2--/4--------6-----7-----9-| 
E|--0--0--0--0---------------------------------4-----5-----7----| 
p.m................................... 
 
 
OUTRO 
 
E|------------------------------------------------| 
B|------------------------------------------------| 
G|--------------4--4--------------------2--2------| 
D|--2--2--x--x--4--4--x--x--2--2--x--x--2--2------| 
A|--2--2--x--x--2--2--x--x--2--2--x--x--0--0------| 
E|--0--0--x--x--------x--x--0--0--x--x---------4--| 
 
E|---------------------------------------------------------0--| 
B|---------------------------------------------------------0--| 
G|--------------4--4----------------------2----------------1--| 
D|--2--2--x--x--4--4--x--x--2----2--------2----------------2--| 
A|--2--2--x--x--2--2--x--x--2----2--------0----------------2--| 
E|--0--0--x--x--------x--x--0----0-----------4--2--4--2----0--| 
 

		  

See also:

tabs Gary Moore - Parisienne Walkways tabs Badly Drawn Boy - Something To Talk About tabs Gary Moore - Still Got the Blues (ver. 2) tabs Stone Sour - Bother tabs Disturbed - Stricken tabs Gary Moore - The Loner
e-chords

Other versions:

tabs Wheathus - Teenage Dirtbag tabs Wheatus - Teenage Dirtbag tabs Wheatus - Teenage Dirtbag (ver. 2) tabs Wheatus - Teenage Dirtbag (ver. 3)
auto scroll beats size up size down change color hide chords drawings
tab show chords e-chords YouTube Clip e-chords hide all tabs e-chords go to top tab

share