Wheatus

Teenage Dirtbag (ver. 2)

Wheatus

tabs

save to print version add songbook text version e-mail correct tuner
chordsukulelecavacokeyboardtabbassdrumsharmonicaflute Guitar Pro
close

there isn't a video lesson for this song

chords

Teenage Dirtbag (ver. 2)

	  		Acoustic Guitar: introduction 
 
-0------0-------0--------0---------|------------------------------------------ 
-----------------------------------|------------------------------------------ 
-----------------------------------|------------------------------------------ 
-----------------------------------|------------------------------------------ 
-----------2-2--------------0-0----|------------------------------------------ 
---0-0-------------0-0-------------|------------------------------------------ 
   intro. is palm muted 
 
-0-----0------0------0------0------0------0-----0-------|--------------------- 
--------------------------------------------------------|--------------------- 
--------------------------------------------------------|--------------------- 
--------------------------------------------------------|--------------------- 
---------0-0-----2-2---2-2-----4-4---0-0----2-2---2-2---|--------------------- 
---4-4--------------------------------------------------|--------------------- 
   Also palm muted here 
 
-------------------------|---------------------------------------------------- 
-------------------------|---------------------------------------------------- 
------2-2--4-4-----------|---------------------------------------------------- 
-2-2--2-2--4-4----6---4--|---------------------------------------------------- 
-2-2--0-0--2-2---4---2---|---------------------------------------------------- 
-0-0---------------------|---------------------------------------------------- 
 -Chorus                                                                       
 
-------------------------|---------------------------------------------------- 
-------------------------|---------------------------------------------------- 
-------------------------|---------------------------------------------------- 
--6--4--2--4-------------|---------------------------------------------------- 
-4--2--0--2--------------|---------------------------------------------------- 
-------------------------|---------------------------------------------------- 
                                                                     
 
------|--------------|-------------------------------------------------------- 
------|--------------|-------------------------------------------------------- 
------|--------------|-------------------------------------------------------- 
-2-7--|--6--4--2--4--|------------2-2-2-2--4-4-4-4---6--4--2--4--------------- 
-2-7--|-4--2--0--2---|--2-2-2-2---0-0-0-0--2-2-2-2--4--2--0--2---------------- 
-0-5--|--------------|--0-0-0-0----------------------------------------------- 
 -Bridge               -Last Verse is Palm Muted except for single notes          
 
------------------------------------------------------------------------------ 
------------------------------------------------------------------------------ 
-------------4-4-----------------------2-2-2-2----------------4-4------------- 
-2-2--x-x----4-4--x-x------2-2--x-x---x2-2-2-2---2-2--x-x---x-4-4------------- 
-2-2--x-x--x-2-2--x-x----x-2-2--x-x---x0-0-x-x---2-2--x-x---x-2-2------------- 
-0-0--x-x---------x-x----x-0-0--x-x--------4-4---0-0--x-x--------------------- 
 -Outro                                                                        
 
------------------------------0----------------------------------------------- 
---------------------------0--0----------------------------------------------- 
---------------------------2--1----------------------------------------------- 
-x-x-----2-2--x---------------2----------------------------------------------- 
-x-x---x-2-2--x---------------2----------------------------------------------- 
-x-x---x-0-0--x--5v-4-2h4-2---0----------------------------------------------- 
 -Outro 
 

		  

See also:

tabs Gary Moore - Parisienne Walkways tabs Badly Drawn Boy - Something To Talk About tabs Gary Moore - Still Got the Blues (ver. 2) tabs Stone Sour - Bother tabs Disturbed - Stricken tabs Gary Moore - The Loner
e-chords

Other versions:

tabs Wheathus - Teenage Dirtbag tabs Wheatus - Teenage Dirtbag tabs Wheatus - Teenage Dirtbag (ver. 2) tabs Wheatus - Teenage Dirtbag (ver. 3)
auto scroll beats size up size down change color hide chords drawings
tab show chords e-chords YouTube Clip e-chords hide all tabs e-chords go to top tab

share