Wheathus

Teenage Dirtbag

Wheathus

tabs Beginner beginner

by  TAZMANIADEVIL

save to print version add songbook text version e-mail correct tuner
chordsukulelecavacokeyboardtabbassdrumsharmonicaflute Guitar Pro
close

there isn't a video lesson for this song

chords

Teenage Dirtbag

	  		 INTRO and VERSE 
    E      B    E     A 
 e|-----0-----0-----0-----0---- 
 B|-----0-----0-----2-----0---- 
 G|-------------------2-2----- 
 D|-------4-4---------2-2----- 
 A|-2-2---2-2---2-2---0-0----- 
 E|-0-0---2-2---0-0----------- 
  
 PRE-VERSE 
    E     A     B     B 
 e|-----0-----0-----0-------- 
 B|-----2-----0-----0-------- 
 G|-------2-2---------------- 
 D|-2-2---2-2---4-4---4-4---- 
 A|-2-2---0-0---2-2---2-2---- 
 E|-0-0---------2-2---2-2---- 
  
 Chorus 
  
 Chorus RIFF ONE---play three times...then 
 e|-0-0---2-2----------------- 
 B|-0-0---2-2----------------- 
 G|-1-1---4-4---6-6----------- 
 D|-2-2---4-4---7-7----6---4-- 
 A|-2-2---2-2---7-7--4---2---- 
 E|-0-0---2-2---5-5----------- 
  
 Chorus RIFF TWO--play once 
 e|-0-0---2-2------------------------ 
 B|-0-0---2-2------------------------ 
 G|-1-1---4-4---6-6------------------ 
 D|-2-2---4-4---7-7----6---4---1---4- 
 A|-2-2---2-2---7-7--4---2---0---2--- 
 E|-0-0---2-2---5-5------------------ 
  
 BRIDGE 
 e|-------0--------0--------0------------------- 
 B|-------2--------2--------2------------------- 
 G|-1-1-1-2--1-1-1-2--1-1-1-2------------------- 
 D|-2-2-2-2--2-2-2-2--2-2-2-2----6---4---2---4-- 
 A|-2-2-2----2-2-2----2-2-2----4---2---0---2---- 
 E|-0-0-0----0-0-0----0-0-0--------------------- 
  
 LRYICS 
 verse: 
 her name is Noel, i have a dream about her 
 she rings my bell, i got gym class in half an hour 
 oh how she rocks, in kids in tube socks 
  
 Pre-Chorus: 
 She doesnt know who i am 
 and she doesnt give a damn about me 
  
 Chorus: 
 Im just a teenage dirtbad baby, im just a teenage dirtbag baby 
 Listen to Iron Madien baby, with me. Oooohhh. 
  
 Verse: 
 Her boyfriends a dick, he brings a gun to shcool 
 and hed simply kick, my ass if he knew the truth 
 he lives on my block, he drives an I-rock 
  
 Preverse: 
 but he doesnt know who i am 
 and he doesnt give a damn about me. 
  
 Chorus 
  
  
 Bridge: 
 Oh yeah, today, no she doesnt know it, shes the same 
 Oh yeah, today, no she doesnt know it, shes the same 
  
 Verse: 
 man i feel like mold, its prom nite and i am lonely 
 low and behold, shes walking over to me 
 this must be fake, my lip starts to shake 
  
 Pre-Chorus: 
 How does she know who i am, why does she give a damn about me 
 I got two tickets to Iron Maiden baby,  
 come with my friday dont say maybe 
 im just a teenage dirtbag baby, like me. ooohhh. 
  
 BRIDGE 
 

		  

Full key step upFull key step up
Half key step upHalf key step up
Half key step downHalf key step down
Full key step downFull key step down
hide glossary

See also:

tabs Mason Williams - Classical Gas tabs UFO - Doctor Doctor tabs Lynyrd Skynyrd - Simple Man tabs Lynyrd Skynyrd - That smell (full song) tabs Johnny Cash - Ghost Riders In The Sky (solo) tabs Lynyrd Skynyrd - Simple Man (ver. 2)
e-chords

Other versions:

tabs Wheathus - Teenage Dirtbag tabs Wheatus - Teenage Dirtbag tabs Wheatus - Teenage Dirtbag (ver. 2) tabs Wheatus - Teenage Dirtbag (ver. 3)
auto scroll beats size up size down change color hide chords drawings
tab show chords e-chords YouTube Clip e-chords hide all tabs e-chords go to top tab

share