Westcoast Consortium

Spending My Life Saying Goodbye

Westcoast Consortium

tabs

by  EDUCASTILHO

save to print version add songbook text version e-mail correct tuner
chordsukulelecavacokeyboardtabbassdrumsharmonicaflute Guitar Pro
close

there isn't a video lesson for this song

chords

Spending My Life Saying Goodbye

	  		

Tuning: EADG 

0:04 

G|------------| 
D|------------| 
A|2-------2---| 
E|------------| 

G|----------------------------------------------------------------| 
D|----------------------------------------------------------------| x3 
A|----------------------------------------------------2-------2---| 
E|0---------------------------------------------------------------| 

0:19 

G|----------------------------------------------------------------|. 
D|2-------------------------------2-------------------------------|. 
A|------------0-------0-----------------------0-------0-----------|. 
E|----------------------------------------------------------------|. 
                                                                   . 
G|----------------------------------------------------------------|. 
D|2-------------------------------2-------------------------------|. 
A|------------0-------0-----------------------0-------0-----------|. 
E|----------------------------------------------------------------|. 
                                                                   . x2 
G|----------------------------------------------------------------|. 
D|----------------------------------------------------------------|. 
A|0-----------5-------5-----------0-----------5-------5-----------|. 
E|----------------------------------------------------------------|. 
                                                                   . 
G|----------------------------------------------------------------|. 
D|--------------------2-------------------------------------------|. 
A|0-----------4-----------4-------------------2-------------------|. 
E|--------------------------------4-----------------------2-------|. 

0:54 

G|----------------------------------------------------------------| 
D|----------------------------------------------------------------| x2 
A|--------------------------------0-----------2-------------------| 
E|0-----------2-------2-------2---------------------------2-------| 

G|----------------------------------------------------------------| 
D|------------2-------4---2---------------------------------------| 
A|4-------------------------------0-----------2-------------------| 
E|----------------------------------------------------------------| 

G|------------------------------------------------| 
D|------------------------------------------------| 
A|0-------------------------------2---------------| 
E|----------------2-----------2-----------2-------| 

G|----------------------------------------------------------------| 
D|2-------------------------------2-------------------------------| x2 
A|------------0-------0-----------------------0-------0-----------| 
E|----------------------------------------------------------------| 

1:20 

G|----------------------------------------------------------------| 
D|2-------------------------------2-------------------------------| x2 
A|------------0-------0-----------------------0-------0-----------| 
E|----------------------------------------------------------------| 

G|----------------------------------------------------------------| 
D|----------------------------------------------------------------| 
A|0-----------5-------5-----------0-----------5-------5-----------| 
E|----------------------------------------------------------------| 

G|----------------------------------------------------------------| 
D|--------------------2-------------------------------------------| 
A|0-----------4-----------4-------------------2-------------------| 
E|--------------------------------4-----------------------2-------| 

1:38 

G|----------------------------------------------------------------| 
D|----------------------------------------------------------------| x2 
A|--------------------------------0-----------2-------------------| 
E|0-----------2-------2-------2---------------------------2-------| 

G|----------------------------------------------------------------| 
D|------------2-------4---2---------------------------------------| 
A|4-------------------------------0-----------2-------------------| 
E|----------------------------------------------------------------| 

G|------------------------------------------------| 
D|------------------------------------------------| 
A|0-------------------------------2---------------| 
E|----------------2-----------2-----------2-------| 

1:54 

G|----------------------------------------------------------------| 
D|----------------------------------------------------------------| 
A|--------------------------------0-----------2-------------------| 
E|0-----------2-------2-------2---------------------------2-------| 

G|----------------------------------------------------------------| 
D|----------------------------------------------------------------| 
A|--------------------------------0-------0---2-------------------| 
E|0-----------2-------2-------2---------------------------2-------| 

G|----------------------------------------------------------------| 
D|------------2-------4---2---------------------------------------| 
A|4-------------------------------0-----------2-------------------| 
E|----------------------------------------------------------------| 

G|------------------------------------------------| 
D|------------------------------------------------| 
A|0-------------------------------2---------------| 
E|----------------2-----------2-----------2-------| 

2:11 

G|----------------------------------------------------------------| 
D|2-------------------------------2-------------------------------| 
A|------------0-------0-----------------------0-------0-----------| 
E|----------------------------------------------------------------| 

G|------------------------------------| 
D|2-------------------------------2---| 
A|------------0-------0---------------| 
E|------------------------------------| 
		  

auto scroll beats size up size down change color hide chords drawings
tab show chords e-chords YouTube Clip e-chords hide all tabs e-chords go to top tab

share