Weezer

home > Weezer

undone/sweater song Tab

Weezer

Difficulty: nolevelnolevel

by europeu

tuner correct add songbook print version text version save to e-mail
chordsukulelecavacokeyboardtabbassdrumsharmonicsflute Guitar Pro
chords

undone/sweater song

  		------------------------| 
-------0--0---0---0-----| 
------3--3---5---3------| 
-----2--2---4---2-------| 
-------3---5---3--------| 
---3--------------------| 
 
------------------------| 
-------0---0--0---0-----| 
------3--3---5---3------| 
-----2--2---4---2-------| 
-------3---5---3--------| 
---3--------------------| 

	  

Search Paypal
auto scroll beats size up size down change color hide chords drawings
tab show chords e-chords YouTube Clip e-chords hide all tabs e-chords go to top tab