Weezer

home > Weezer

Tired Of Sex Tab

Weezer

Difficulty: nolevelnolevel

by europeu

tuner correct add songbook print version text version save to e-mail
chordsukulelecavacokeyboardtabbassdrumsharmonicsflute Guitar Pro
chords

Tired Of Sex

  		e|---------------------------------------------------------------------------verse 1  
B|---------------------------------------------------------------------------part in parentheses only play 1st x  
G|---------------------------------------------------------------------------bass intro transcribed for guitar  
D|---------------------------------------------------------------------------play 10x  
A|----------------5-5-5-7-5-3-2-2--------------------------------------------slide during this,you will figure it  
E|--(3/10)--3-3--------------------------------------------------------------out listing to it,its easy  
 
e|---------------------------------------------------------------------------verse 2  
B|---------------------------------------------------------------------------bass cont.  
G|---------------------------------------------------------------------------play 3x  
D|---------------------------------------------------------------------------also slide  
A|-------------3-3-3-3-5-5-5-5-7-7-7-7-----------------------------------  
E|--3-3-3-3-----------------------------------------------------------------  
 
e|---------------------------------------------------------------------------verse 3  
B|---------------------------------------------------------------------------play 1x at the end of the 3rd time  
G|--------------------------------------------------------------------------- of verse 2  
D|---------------------------------------------------------------------------  
A|-7-7-7-7-5-3-1-------------------------------------------------------------  
E|---------------------------------------------------------------------------  
 
e/---------------------------------------------------------------------------verse 4  
B/---------------------------------------------------------------------------distorted guitar  
G/---------7--7--7--9--7--4--4-----------------------------------------------play 10x  
D/---5--5--7--7--7--9--7--4--4-----------------------------------------------you slide during this,you figure it  
A/---5--5--5--5--5--7--5--2--2-----------------------------------------------out listining to it.  
E/---3--3---------------------------------------------------------------------  
 
e/---------------------------------------------------------------------------verse 5  
B/---------------------------------------------------------------------------distorted guitar  
G/---------------5--5--5--5--7--7--7--7--9--9--9--9--------------------------play 3x  
D/---5--5--5--5--5--5--5--5--7--7--7--7--9--9--9--9--------------------------also slide  
A/---5--5--5--5--3--3--3--3--5--5--5--5--7--7--7--7--------------------------  
E/---3--3--3--3--------------------------------------------------------------  
 
e/---------------------------------------------------------------------------verse 6  
B/---------------------------------------------------------------------------distorted guitar  
G/---------------------------------------------------------------------------play 1x at end of verse 5  
D/-10--10-10-10--------------------------------------------------------------  
A/-8---8---8--8---10-10-10-10-10-10--9-9-9-9--8-8-8-8-8-8-8-8----------------  
E/-----------------8--8--8--8--8--8--7-7-7-7--6-6-6-6-6-6-6-6----------------  
 
-solo(over riff) i know the solo but not enough room,you can find that on other sites  
-next part is a variation of verse 5,pluck 2 times each instead of 4,play 3x  
 
e|------------------------------verse 7                e--1-0---------0--outro thing  
B|------------------------------play this at end of    B-------2---------play 1x  
G|------------------------------variation of verse 5   G----------2------  
D|--10-10-10-10-----------------                       D-----------------  
A|--8--8---8--8---10-9-8-8------                       A-----------------  
E|-----------------8--7-6-6-----                       E-----------------  
  
  
    
 
 
 
 

	  

Search Paypal
auto scroll beats size up size down change color hide chords drawings
tab show chords e-chords YouTube Clip e-chords hide all tabs e-chords go to top tab