Weezer

home > Weezer

Thought I Knew Tab

Weezer

Difficulty: nolevelnolevel

by LINEKERS

tuner correct add songbook print version text version save to e-mail
chordsukulelecavacokeyboardtabbassdrumsharmonicsflute Guitar Pro
chords

Thought I Knew

Year: 2008 - Album: Weezer (Red Album) [Deluxe]

  		
Verse1: 
e|--------------------------------------------------------------| 
B|--------------------------------------------------------------| 
G|---6h7-6h9~~--6h7-6h9~~--6h7-6h9~-7--6------------------------| 
D|------------------------------------------9~~--9~~--8h9-8/11--| 
A|--------------------------------------------------------------| 
E|--------------------------------------------------------------| 

Chorus: 
e|---------------------------------------------------------------------------------| 
B|---------------------------------------------------------------------------------| 
G|---------------------------------------------------------------------------------| 
D|---------------------------------------------------------------------------------| 
A|-----------------------------------------------9--9-9--7/9\7--5--5-5--4--4-4--5--| 
E|---7--7-7--7-7--9--9-9--9-9--10--10-10--10-10------------------------------------| 

e|-------------------------------------------------------| 
B|-------------------------------------------------------| 
G|---7--9-7--11--11-11--7h9-7----------------------------| 
D|-----------------------------9--9-9--9-9----8--8-8--8--| 
A|-------------------------------------------------------| 
E|-------------------------------------------------------| 

PostChorus1: 
e|---------------------------------------------------------| 
B|---------------------------------------------------------| 
G|---------------------------------------------------------| 
D|---------------------------------------------------------| 
A|---5--5-5--5-5----7----9-9--9h10-9--9-9--9-9----5--4--5--| 
E|---------------------------------------------------------| 

Verse2: 
e|--------------------------------------------------------------| 
B|--------------------------------------------------------------| 
G|---6h7-6h9~~--6h7-6h9~~--6h7-6h9~-7--6------------------------| 
D|------------------------------------------9~~--9~~--8h9-8/11--| 
A|--------------------------------------------------------------| 
E|--------------------------------------------------------------| 

Chorus: 
e|------------------------------------------------------------------------------| 
B|------------------------------------------------------------------------------| 
G|------------------------------------------------------------------------------| 
D|------------------------------------------------------------------------------| 
A|--------------------------------------------9--9-9--7/9\7--5--5-5--4--4-4--5--| 
E|---7----7-7--9--9-9--9-9--10--10-10--10-10------------------------------------| 

e|-------------------------------------------------------| 
B|-------------------------------------------------------| 
G|---7--9-7--11--11-11--7h9-7----------------------------| 
D|-----------------------------9--9-9--9-9----8--8-8--8--| 
A|-------------------------------------------------------| 
E|-------------------------------------------------------| 

PostChorus2: 
e|---------------------------------------------------------| 
B|---------------------------------------------------------| 
G|---------------------------------------------------------| 
D|---------------------------------------------------------| 
A|---5--5-5--5-5----7----9-9--9h10-9--9-9--9-9----5--4--5--| 
E|---------------------------------------------------------| 

Bridge: 
e|------14------14-----12-----14------14-----12-----14------14-----12-----14------14-----12-19~~~14-(x16)-| 
B|--12------12------12----12------12------12----12------12------12----12------12------12------------------| 
G|--------------------------------------------------------------------------------------------------------| 
D|--------------------------------------------------------------------------------------------------------| 
A|--------------------------------------------------------------------------------------------------------| 
E|--------------------------------------------------------------------------------------------------------| 

Chorus: 
e|---------------------------------------------------------------------------------| 
B|---------------------------------------------------------------------------------| 
G|---------------------------------------------------------------------------------| 
D|---------------------------------------------------------------------------------| 
A|-----------------------------------------------9--9-9--7/9\7--5--5-5--4--4-4--5--| 
E|---7--7-7--7-7--9--9-9--9-9--10--10-10--10-10------------------------------------| 

e|-------------------------------------------------------| 
B|-------------------------------------------------------| 
G|---7--9-7--11--11-11--7h9-7----------------------------| 
D|-----------------------------9--9-9--9-9----8--8-8--8--| 
A|-------------------------------------------------------| 
E|-------------------------------------------------------| 

e|---------------------------------------------------------------------------------| 
B|---------------------------------------------------------------------------------| 
G|---------------------------------------------------------------------------------| 
D|---------------------------------------------------------------------------------| 
A|-----------------------------------------------9--9-9--7/9\7--5--5-5--4--4-4--5--| 
E|---7--7-7--7-7--9--9-9--9-9--10--10-10--10-10------------------------------------| 

e|-------------------------------------------------------| 
B|-------------------------------------------------------| 
G|---7--9-7--11-11-11-9-7br-6----------------------------| 
D|-----------------------------9--9-9--9-9----8--8-8--8--| 
A|-------------------------------------------------------| 
E|-------------------------------------------------------| 

Outro: 
e|----------------------------------------------------------------| 
B|----------------------------------------------------------------| 
G|---7--7-7--7-7----6--4--7--7-7--11--11-11--11-11----9--12--11---| 
D|----------------------------------------------------------------| 
A|----------------------------------------------------------------| 
E|----------------------------------------------------------------| 

e|----------------------------------------------------------------------| 
B|----------------------------------------------------------------------| 
G|---9----12----11----7--6h7--7-7---------------------------------------| 
D|---------------------------------7----9----7----5--4--0--let-it-ring--| 
A|----------------------------------------------------------------------| 
E|----------------------------------------------------------------------| 

*********************************** 
| /   Slide up 
| \   Slide down 
| h   Hummer-on 
| ~   Vibrato 
| br  Bend release 
*********************************** 
	  

Search Paypal
auto scroll beats size up size down change color hide chords drawings
tab show chords e-chords YouTube Clip e-chords hide all tabs e-chords go to top tab