Weezer

home > Weezer

King Of The World Tab

Weezer

Difficulty: nolevelnolevel

by educastilho

tuner correct add songbook print version text version save to e-mail
chordsukulelecavacokeyboardtabbassdrumsharmonicsflute Guitar Pro
chords

King Of The World

  		------------------------------------------------------------------------------- 
                             KING OF THE WORLD - Weezer 
------------------------------------------------------------------------------- 
Tabbed by: @mike_venusaur 
E-mail: [email protected] 

Tuning: Eb Standard 

Intro and Chorus 
Guitar 1 
e|---------------------------------------------------------------------------| 
B|---------------------------------------------------------------------------| 
G|--12---12-12/---4/5--5---5-5-----------------5/7--7--7-7-7-----------------| 
D|--12---12-12/---4/5--5---5-5---5/7--7--7-7---5/7--7--7-7-7-----------------| 
A|--10---10-10/---2/3--3---3-3---5/7--7--7-7---3/5--5--5-5-5-----------------| 
E|-------------------------------3/5--5--5-5---------------------------------| 

e|---------------------------------------------------------------------------| 
B|---------------------------------------------------------------------------| 
G|--12---12-12/---4/5--5---5-5-------------------11-11---11-11--11-----------| 
D|--12---12-12/---4/5--5---5-5---5/7--7--7-7-7---11-11---11-11--11-----------| 
A|--10---10-10/---2/3--3---3-3---5/7--7--7-7-7----9--9----9--9---9-----------| 
E|-------------------------------3/5--5--5-5-5-------------------------------| 

Intro 
Guitar 2 
e|----------------------------------------------------------------------------------| 
B|--8---12--12/13\12--15---17-17/19\17---8---12--12/13\12---------------------------| 
G|----------------------------------------------------------11-11--11-11--12/14\12--| 
D|--5----9--9/-10-\9--12---14-14/16\14---5----9--9/-10-\9---------------------------| 
A|-----------------------------------------------------------9--9---9--9--10/12\12--| 
E|----------------------------------------------------------------------------------| 

e|----------------------------------------------------------------------------------| 
B|--12--12/13\12--15---17-17/19\17---8---12--12/13\12-------------------------------| 
G|----------------------------------------------------------11-11--11-11--9--7~-----| 
D|---9--9/-10-\9--12---14-14/16\14---5----9--9/-10-\9-------------------------------| 
A|-----------------------------------------------------------9--9---9--9--7--5~-----| 
E|----------------------------------------------------------------------------------| 

Verse 
Guitar 1 
e|---------------------------------------------------------------------------| 
B|---------------------------------------------------------------------------| 
G|---------4--5-5--------------5--7--x--7-7--7-------------------------------| 
D|--5-5----4--5-5----5--7-7----5--7--x--7-7--7-------------------------------| 
A|--5-5----2--3-3----5--7-7----3--5--x--5-5--5-------------------------------| 
E|--3-3--------------3--5-5--------------------------------------------------| 

e|---------------------------------------------------------------------------| 
B|---------------------------------------------------------------------------| 
G|---------4--5-5------------------------11-11--11-11--11--------------------| 
D|--5-5----4--5-5----5--7-7----7-7--7----------------------------------------| 
A|--5-5----2--3-3----5--7-7----7-7--7-----9--9---9--9---9--------------------| 
E|--3-3--------------3--5-5----5-5--5----------------------------------------| 

Guitar 2 
e|---------------------------------------------------------------------------| 
B|---------------------------------------------------------------------------| 
G|------11--11h12----9--9h11-----7--7h9-----5p4--2---------------------------| 
D|---------------------------------------------------------------------------| 
A|---------------------------------------------------------------------------| 
E|---------------------------------------------------------------------------| 

e|---------------------------------------------------------------------------| 
B|------------------------------------------10--10-10--10--------------------| 
G|------11--11h12----9--9h11-----7--7h9--------------------------------------| 
D|-------------------------------------------7----7-7---7--------------------| 
A|---------------------------------------------------------------------------| 
E|---------------------------------------------------------------------------| 

Chorus 
Guitar 2 
e|---------------------------------------------------------------------------| 
B|--8-8-8-8-8-8-8-8-8-8-8-8-8-8-8-8-8-8-8-8-8-8-8-8-7-7-7-7-7-7-7-7----------| 
G|---------------------------------------------------------------------------| 
D|--5-5-5-5-5-5-5-5-5-5-5-5-5-5-5-5-5-5-5-5-5-5-5-5-4-4-4-4-4-4-4-4----------| 
A|---------------------------------------------------------------------------| 
E|---------------------------------------------------------------------------| 

e|---------------------------------------------------------------------------| 
B|--8-8-8-8-8-8-8-8-8-8-8-8-8-8-8-8-8-8-8-8-8-8-8-8-7-7-7-7-5-5-5-5----------| 
G|---------------------------------------------------------------------------| 
D|--5-5-5-5-5-5-5-5-5-5-5-5-5-5-5-5-5-5-5-5-5-5-5-5-4-4-4-4-2-2-2-2----------| 
A|---------------------------------------------------------------------------| 
E|---------------------------------------------------------------------------| 

e|---------------------------------------------------------------------------| 
B|--13-13-13-13-12-12-12-12--------------------13--12--10----8-8--7--5-------| 
G|---------------------------12--11--9-9-9-9---------------------------------| 
D|---------------------------------------------------------------------------| 
A|---------------------------------------------------------------------------| 
E|---------------------------------------------------------------------------| 

e|---------------------------------------------------------------------------| 
B|--13--12--10----8-8--7--5------------------13--12--10----17b---17----------| 
G|---------------------------------------------------------------------------| 
D|---------------------------------------------------------------------------| 
A|---------------------------------------------------------------------------| 
E|---------------------------------------------------------------------------| 

e|---------------------------------------------------------------------------| 
B|--8-8-8-8-8-8-8-8-8-8-8-8-8-8-8-8-8-8-8-8-8-8-8-8-7-7-7-7-7-7-7-7----------| 
G|---------------------------------------------------------------------------| 
D|--5-5-5-5-5-5-5-5-5-5-5-5-5-5-5-5-5-5-5-5-5-5-5-5-4-4-4-4-4-4-4-4----------| 
A|---------------------------------------------------------------------------| 
E|---------------------------------------------------------------------------| 

e|---------------------------------------------------------------------------| 
B|--8-8-8-8-8-8-8-8-8-8-8-8-8-8-8-8-8-8-8-8-8-8-8-8-7-7-7-7-5-5-5-5----------| 
G|---------------------------------------------------------------------------| 
D|--5-5-5-5-5-5-5-5-5-5-5-5-5-5-5-5-5-5-5-5-5-5-5-5-4-4-4-4-2-2-2-2----------| 
A|---------------------------------------------------------------------------| 
E|---------------------------------------------------------------------------| 

verse 2 

Guitar 2 
e|---------------------------------------------------------------------------| 
B|--------------------8-----------10~---------------------8----------7-7--7--| 
G|--12~----10~----9~-----9---7----------12~----10~----9~------9---7----------| 
D|-------------------------------------------------------------------4-4--4--| 
A|---------------------------------------------------------------------------| 
E|---------------------------------------------------------------------------| 

Bridge 

Guitar 2 
e|---------------------------------------------------------------------------| 
B|--3-----------5----3------------------------/8---7~----5-------------------| 
G|------4--------------------4---5---4---------------------------------------| 
D|----------5-----------------------------5----------------------------------| 
A|---------------------------------------------------------------------------| 
E|---------------------------------------------------------------------------| 

e|---------------------------------------------------------------------------| 
B|--3-----------5----3-------------------------------------------------------| 
G|------4--------------------4---5---4---------------------------------------| 
D|----------5-----------------------------5---5~---/7~-----------------------| 
A|---------------------------------------------------------------------------| 
E|---------------------------------------------------------------------------| 


************************************ 

| /   slide up 
| \   slide down 
| h   hammer-on 
| p   pull-off 
| ~   vibrato 
| x   Mute note 
| b   Full Step Bend 

************************************ 
	  

Search Paypal
auto scroll beats size up size down change color hide chords drawings
tab show chords e-chords YouTube Clip e-chords hide all tabs e-chords go to top tab