Weezer

home > Weezer

Island In The Sun Tab

Weezer

Difficulty: BeginnerBeginner

by lolopop

tuner correct add songbook print version text version save to e-mail
chordsukulelecavacokeyboardtabbassdrummharmonicsflute Guitar Pro
chords

Island In The Sun

  		 
 Intro x4 
e-3--x--5--2--3-------------------------- 
b-5--x--5--3--3-------------------------- 
g-4--x--5--2--4-------------------------- 
d---------------------------------------- 
a---------------------------------------- 
E---------------------------------------- 
                       
 Verse  (play intro first) 
e---------------------------------------- 
b---8---8---8---7---7---7---8---8----8--- x2 
d-9---9---9---7---7---7---7---7---7------ 
d---------------------------------------- 
a---------------------------------------- 
E---------------------------------------- 
 
 Chorus 
e---------------------------------------- 
b---------------------------------------- 
g-7-7-7-----------5-5-5-----------7-7-7-- 
d-7-7-7---5-5-5---5-5-5---7-7-7---7-7-7-- 
a-5-5-5---5-5-5---3-3-3---7-7-7---5-5-5-- 
E---------3-3-3-----------5-5-5----------  
 
 (play verse again) 
 
 (play Chorus) 
 
 Solo 
e---------------------------------------- 
b---------------------------------------- 
g-------9-7------------------------------ 
d---5--------10-9-10-9~--5--9-7---------- 
a-------------------------------10-9-10-10 (x2) 
E---------------------------------------- 
 
Submitted by lolopop 

	  

Search Paypal
auto scroll beats size up size down change color hide chords drawings
tab show chords e-chords YouTube Clip e-chords hide all tabs e-chords go to top tab