Weezer

home > Weezer

If Your Wondering If I Want You To I Want You To Tab

Weezer

Difficulty: nolevelnolevel

by aman%5Fclaudino

tuner correct add songbook print version text version save to e-mail
chordsukulelecavacokeyboardtabbassdrumsharmonicsflute Guitar Pro
chords

If Your Wondering If I Want You To I Want You To

  		

Intro/verse 
Guitar 1 

e|-------------------------------------------------------------------------|x2 
B|-------------------------------------------------------------------------| 
G|-------------------------------------------------------------------------| 
D|-77-774--7-77-77-2-4---77-774-7-77-77-2-4--------------------------------| 
A|-55-552--5-55-55-0-2---55-552-5-55-55-0-2--------------------------------| 
E|-------------------------------------------------------------------------| 

e|-------------------------------------------------------------------------| 
B|-------------------------------------------------------------------------| 
G|-------------------------------------------------------------------------| 
D|-------------------------------------------------------------------------| 
A|-77-776--7-77-77-4-6---77-776-7-77-77-4-6--------------------------------| 
E|-55-554--5-55-55-2-4---55-554-5-55-55-2-4--------------------------------| 

e|-------------------------------------------------------------------------| 
B|-------------------------------------------------------------------------| 
G|-------------------------------------------------------------------------| 
D|-------------------------------------------------------------------------| 
A|-55-555--5-55-55-5-5---88-888-8-88-1010-8-7------------------------------| 
E|-33-333--3-33-33-3-3---66-666-6-66--8-8-6-5------------------------------| 

Verse Part 2 
Guitar 2 

          D              Bm                 G              Bb 
e|-2x2-2x2-2x2-2x2---------------------3x3-3x3-3x3-3x3---------------------| 
B|-3x3-3x3-3x3-3x3---3x3-3x3-3x3-3x3---3x3-3x3-3x3-3x3---3x3-3x3-3x3-3x3---| 
G|-2x2-2x2-2x2-2x2---4x4-4x4-4x4-4x4---0x0-0x0-0x0-0x0---3x3-3x3-3x3-3x3---| 
D|-0x0-0x0-0x0-0x0---4x4-4x4-4x4-4x4---0x0-0x0-0x0-0x0---3x3-3x3-3x3-3x3---| 
A|-------------------2x2-2x2-2x2-2x2---2x2-2x2-2x2-2x2---1x1-1x1-1x1-1x1---| 
E|-------------------------------------3x3-3x3-3x3-3x3---------------------| 

Chorus 

Guitar 1 
D Bm G A D 

Guitar 2 
D Bm G A D 

Guitar 3 
e|---------------------------------------------------------------------------| 
B|---------------------------------------------------------------------------| 
G|---------------------------------------------------------------------------| 
D|-7777777777777777-444444444444444--------------------7777777777777777------| 
A|-5555555555555555-222222222222222-55555555-77777777--5555555555555555------| 
E|----------------------------------33333333-55555555------------------------| 

verse 2 

Verse part 1 
Guitar 1 

e|-------------------------------------------------------------------------|x2 
B|-------------------------------------------------------------------------| 
G|-------------------------------------------------------------------------| 
D|-77-774--7-77-77-2-4---77-774-7-77-77-2-4--------------------------------| 
A|-55-552--5-55-55-0-2---55-552-5-55-55-0-2--------------------------------| 
E|-------------------------------------------------------------------------| 

e|-------------------------------------------------------------------------| 
B|-------------------------------------------------------------------------| 
G|-------------------------------------------------------------------------| 
D|-------------------------------------------------------------------------| 
A|-77-776--7-77-77-4-6---77-776-7-77-77-4-6--------------------------------| 
E|-55-554--5-55-55-2-4---55-554-5-55-55-2-4--------------------------------| 

e|-------------------------------------------------------------------------| 
B|-------------------------------------------------------------------------| 
G|-------------------------------------------------------------------------| 
D|-------------------------------------------------------------------------| 
A|-55-555--5-55-55-5-5---88-888-8-88-1010-8-7------------------------------| 
E|-33-333--3-33-33-3-3---66-666-6-66--8-8-6-5------------------------------| 

Verse part 2 
Guitar 2 

        D                  Bm              G                  Bb 
e|-2x2-2x2-2x2-2x2---------------------3x3-3x3-3x3-3x3---------------------| 
B|-3x3-3x3-3x3-3x3---3x3-3x3-3x3-3x3---3x3-3x3-3x3-3x3---3x3-3x3-3x3-3x3---| 
G|-2x2-2x2-2x2-2x2---4x4-4x4-4x4-4x4---0x0-0x0-0x0-0x0---3x3-3x3-3x3-3x3---| 
D|-0x0-0x0-0x0-0x0---4x4-4x4-4x4-4x4---0x0-0x0-0x0-0x0---3x3-3x3-3x3-3x3---| 
A|-------------------2x2-2x2-2x2-2x2---2x2-2x2-2x2-2x2---1x1-1x1-1x1-1x1---| 
E|-------------------------------------3x3-3x3-3x3-3x3---------------------| 

Chorus 

Guitar 1 
D Bm G A D 

Guitar 2 
D Bm G A D 

Guitar 3 
e|---------------------------------------------------------------------------| 
B|---------------------------------------------------------------------------| 
G|---------------------------------------------------------------------------| 
D|-7777777777777777-444444444444444--------------------7777777777777777------| 
A|-5555555555555555-222222222222222-55555555-77777777--5555555555555555------| 
E|----------------------------------33333333-55555555------------------------| 

e|---------------------------------------------------------------------------| 
B|---------------------------------------------------------------------------| 
G|---------------------------------------------------------------------------| 
D|-7777777777777777-444444444444444--------------------7777777777777777------| 
A|-5555555555555555-222222222222222-55555555-77777777--5555555555555555------| 
E|----------------------------------33333333-55555555------------------------| 

Break 

Guitar 1 
G A Bbm Bm G A 

e|-33333333--00000000-11111111-22222222-3333333333333333-00000000000000000---------| 
B|-33333333--22222222-22222222-33333333-3333333333333333-22222222222222222---------| 
G|-00000000--22222222-33333333-44444444-0000000000000000-22222222222222222---------| 
D|-00000000--22222222-33333333-44444444-0000000000000000-22222222222222222---------| 
A|-22222222--00000000-11111111-22222222-2222222222222222-00000000000000000---------| 
E|-33333333-----------------------------3333333333333333---------------------------| 

Outro 

Guitar 1 
D Bm G A D 

Guitar 2 
D Bm G A D 

Guitar 3 
e|---------------------------------------------------------------------------| 
B|---------------------------------------------------------------------------| 
G|---------------------------------------------------------------------------| 
D|-7777777777777777-444444444444444--------------------7777777777777777------| 
A|-5555555555555555-222222222222222-55555555-77777777--5555555555555555------| 
E|----------------------------------33333333-55555555------------------------| 

e|---------------------------------------------------------------------------| 
B|---------------------------------------------------------------------------| 
G|---------------------------------------------------------------------------| 
D|-7777777777777777-444444444444444--------------------7777777777777777------| 
A|-5555555555555555-222222222222222-55555555-77777777--5555555555555555------| 
E|----------------------------------33333333-55555555------------------------| 

End on D 


************************************ 

| /   slide up 
| \   slide down 
| h   hammer-on 
| p   pull-off 
| ~   vibrato 
| +   harmonic 
| x   Mute note 
| b   Bend 
| pb  Pre-bend 
| br  Bend release 
| pbr Pre-bend release 
| brb Bend release bend 

************************************ 
	  

Full key step upFull key step up
Half key step upHalf key step up
Half key step downHalf key step down
Full key step downFull key step down
Search Paypal
auto scroll beats size up size down change color hide chords drawings
tab show chords e-chords YouTube Clip e-chords hide all tabs e-chords go to top tab