Weezer

home > Weezer

Eulogy For A Rock Band Tab

Weezer

Difficulty: nolevelnolevel

by andrsouza

tuner correct add songbook print version text version save to e-mail
chordsukulelecavacokeyboardtabbassdrumsharmonicsflute Guitar Pro
chords

Eulogy For A Rock Band

  		Eulogy for a Rock Band by Weezer 
Tuning: E flat tuning 

Intro: 

Guitar 1 
eb|----------------------------------------------| 
Bb|---13--12~~--13--12~~----12--10~~--12--10~~---| 
Gb|----------------------------------------------|  (x2) 
Db|---10--9~~~--10--9~~~----9---7~~~--9---7~~----| 
Ab|----------------------------------------------| 
Eb|----------------------------------------------| 

Guitar 2 
eb|----------------------------------------------| 
Bb|----------------------------------------------| 
Gb|----------------------------------------------|  (x2) 
Db|----------------------------------------------| 
Ab|---7--7----7--7------5--5----5--5-------------| 
Eb|---5--4----5--4------3--2----3--2-------------| 

Verse: 
eb|----------------------------------------------| 
Bb|----------------------------------------------| 
Gb|----------------------------------------------|  (x2) 
Db|----------------------------------------------| 
Ab|---7--7----7--7------5--5----5--5-------------|  
Eb|---5--4----5--4------3--2----3--2-------------| 

Buildup: 

1 
eb|-------------------------------| 
Bb|-------------------------------| 
Gb|-----------2-------0-------4---| 
Db|---3---------------------------| 
Ab|-------------------------------| 
Eb|-------------------------------| 

2 
eb|-------------------------------------| 
Bb|-------------------------------------| 
Gb|-------------------------------------| 
Db|-------------------------------------| 
Ab|---3-3-3-3-3-3-3-3-5-5-5-5-5-5-5-5---| 
Eb|---1-1-1-1-1-1-1-1-3-3-3-3-3-3-3-3---| 
      * * * * * * * * * * * * * * * * 
Chorus: 

1 
eb|---3-----------------------------------------------------------3-----------| 
Bb|-----------6-5-3-5-6-5-5-3-3-------(x2)---5~5~3-5-3-5-3-3---3-------(x2)---| 
Gb|-----------------------------5-5-------------------------5---5-------------| 
Db|---------------------------------------------------------------------------| 
Ab|---------------------------------------------------------------------------| 
Eb|---------------------------------------------------------------------------| 

2 
eb|---------------------------------------------------------------------------| 
Bb|---------------------------------------------------------------------------| 
Gb|---5-55-5-55---------------------------------------------------------------| 
Db|---5-55-5-55-------------7-77-7-77--3-33-3-33---(x2)---5-55-5-55-----------| 
Ab|---3-33-3-33--7-77-7-77--7-77-7-77--3-33-3-33----------3-33-2-22-7-77-7-77-| 
Eb|---3-33-3-33--4-44-4-44--5-55-5-55--1-11-1-11--------------------5-55-5-55-| 

Gb|---------------------------------------------------------------------------| 
Db|--3-33--5-55--5-55-5-55--5--5-------------3-33--5-55--5-55-5-5-------------| 
Ab|--3-33--5-55--3-33-3-33--3--2--7-7777777--3-33--5-55--3-33-3-3-------------| 
Eb|--1-11--3-33--3-33-3-33--3-----5-5555555--1-11--3-33--3-33-3-3-------------| 

Verse: 

Same, except 1 plays these bends 
eb|------------------------------------------------| 
Bb|--------15b17~--15b17~------13b15~---13b15~-----|  (x2) 
Gb|------------------------------------------------| 

(Buildup) 

(Chorus) 

Solo: 

1 
eb|-----------------------------------------------------| 
Bb|-----------------------------------------------------| 
Gb|------4-5--7-5-7-7br5-77-7-5-7-7br5-77-7-5-7-7br5----| 
Db|---/7--------------------------------------------7---| 
Ab|-----------------------------------------------------| 
Eb|-----------------------------------------------------| 

eb|----------------------------------------8-7---| 
Bb|---99-9-7-9-9b10-9-7-6-7-7b8-7-6---7-10-------| 
Gb|---------------------------------9------------| 
Db|----------------------------------------------| 
Ab|----------------------------------------------| 
Eb|----------------------------------------------| 

2 
eb|---------------------------------------------------------------------------------------| 
Bb|-------------------------------------------------------------------------------13-12~--| 
Gb|--------------------------------1313-13-11-13b14-13-11-10-11b13-11-10----11-14---------| 
Db|----------------------------------------------------------------------13---------------| 
Ab|--7--7----7--7----5--5----5--5---------------------------------------------------------| 
Eb|--5--4----5--4----3--2----3--2---------------------------------------------------------| 

Bridge: 

1 
eb|-------------------------------------------------------------------| 
Bb|---8------9------10------10-10-8-8-6-6-5-5-------------------------| 
Gb|-----(x8)---(x8)----(x8)--------------------7-----9------5---------|  (x2) 
Db|---5------6------7-------7--7--5-5-3-3-2-2---(x8)---(x8)---(x16)---| 
Ab|--------------------------------------------5-----7------3---------| 
Eb|-------------------------------------------------------------------| 

2                                                                      Both Guitars 
Gb|-------------------------------------------------------|            |-------------| 
Db|---5------6------7------3------5------7------3---------|  (x2) Then |---5---------|    
Ab|---5-(x8)-6-(x8)-7-(x8)-3-(x8)-5-(x8)-7-(x8)-3-(x16)---|            |---5-(x16)---| 
Eb|---3------4------5------1------3------5------1---------|            |---3---------| 

Chorus stays the same, but towards the end let the notes ring like this 
Gb|----------------------------------| 
Db|---3------------5----5--------7---| 
Ab|---3------------5----5--------7---| 
Eb|---1------------3----3--------5---| 

************************************ 
| ~   vibrato 
| b   Bend 
| br  Bend release 
************************************ 
	  

Search Paypal
auto scroll beats size up size down change color hide chords drawings
tab show chords e-chords YouTube Clip e-chords hide all tabs e-chords go to top tab