Weezer

home > Weezer

Dukes Of Hazzard Tab

Weezer

Difficulty: nolevelnolevel

tuner correct add songbook print version text version save to e-mail
chordsukulelecavacokeyboardtabbassdrumsharmonicsflute Guitar Pro
chords

Dukes Of Hazzard

  		TRANSCRIBED BY RUDY GUZMAN 
 
 
[email protected] 
 
 
e:------------------------------| 
B:------------------------------| 
G:-----3-3---3-3------3-3---3-3-| 
D:-----4-4---4-4------4-4---4-4-| 
A:-----4-4---4-4------4-4---4-4-| 
E:-2-2-----2------2-2-----2-----| 
 
  verse 
just the good old boys 
e:------------------------------| 
B:------------------------------| 
G:-----3-3---3-3------3-3---3-3-| 
D:-----4-4---4-4------4-4---4-4-| 
A:-----4-4---4-4------4-4---4-4-| 
E:-2-2-2-2-2-2-2--2-2-2-2-2-2-2-| 
 
gt2 
e:---------------| 
B:---------------| 
G:---------------| 
D:--6b-6b-4~~~---| 
A:---------------| 
E:---------------| 
 
e:-------------------------------| 
B:-------------------------------| 
G:-----4-4---4-4-------4-4---4-4-| 
D:-----4-4---4-4-------4-4---4-4-| 
A:-2-2-2-2-2-2-2--2-2--2-2-2-2-2-| 
E:-------------------------------| 
 
gt2 
e:---------------------| 
B:---------------------| 
G:--6b-6b--------------| 
D:--6b-6b-4~~~--6b-4~~-| 
A:---------------------| 
E:---------------------| 
 
e:---------------| 
B:---------------| 
G:-----3-3---3-3-| 
D:-----4-4---4-4-| 
A:-----4-4---4-4-| 
E:-2-2-2-2-2-2-2-| 
 
e:--------------------------------| 
B:--------------------------------| 
G:-----6-6----6-6------6-6----6-6-| 
D:-----6-6----6-6------6-6----6-6-| 
A:-4-4-4-4--4-4-4--4-4-4-4--4-4-4-| 
E:--------------------------------| 
 
e:------------------------------| 
B:------------------------------| 
G:-----3-3---3-3------3-3---3-3-| 
D:-----4-4---4-4------4-4---4-4-| 
A:-----4-4---4-4------4-4---4-4-| 
E:-2-2-2-2-2-2-2--2-2-2-2-2-2-2-| 
 
gt2 
e:-----------14--------16-14-------14-| 
B:----14--------14-----------14-------| 
G:-11----11--------11-----------14----| 
D:------------------------------------| 
A:------------------------------------| 
E:------------------------------------| 
 
e:-------------------------------| 
B:-------------------------------| 
G:-----4-4---4-4-------4-4---4-4-| 
D:-----4-4---4-4-------4-4---4-4-| 
A:-2-2-2-2-2-2-2--2-2--2-2-2-2-2-| 
E:-------------------------------| 
 
gt2 
:------------------------| 
:----2---4-2-------------| 
:-/3---3-----3---3-------| 
:--------------4---4-----| 
:--------------------4---| 
:----------------------2-| 
 
e:---------------| 
B:---------------| 
G:-----3-3---3-3-| 
D:-----4-4---4-4-| 
A:-----4-4---4-4-| 
E:-2-2-2-2-2-2-2-| 
 
e:--------------------------------| 
B:--------------------------------| 
G:-----6-6----6-6------6-6----6-6-| 
D:-----6-6----6-6------6-6----6-6-| 
A:-4-4-4-4--4-4-4--4-4-4-4--4-4-4-| 
E:--------------------------------| 
 
e:------------------------------| 
B:------------------------------| 
G:-----3-3---3-3------3-3---3-3-| 
D:-----4-4---4-4------4-4---4-4-| 
A:-----4-4---4-4------4-4---4-4-| 
E:-2-2-2-2-2-2-2--2-2-2-2-2-2-2-| 
 
e:-------------------------------| 
B:-------------------------------| 
G:-----4-4---4-4-------4-4---4-4-| 
D:-----4-4---4-4-------4-4---4-4-| 
A:-2-2-2-2-2-2-2--2-2--2-2-2-2-2-| 
E:-------------------------------| 
 
gt2 
e:-------------------| 
B:-------------------| 
G:-6--4b-4b--6-4b~~~-| 
D:-6--4b-4b--6-4b~~~-| 
A:-------------------| 
E:-------------------| 
 
e:---------------| 
B:---------------| 
G:-----3-3---3-3-| 
D:-----4-4---4-4-| 
A:-----4-4---4-4-| 
E:-2-2-2-2-2-2-2-| 
 
e:--------------------------------| 
B:--------------------------------| 
G:-----6-6----6-6------6-6----6-6-| 
D:-----6-6----6-6------6-6----6-6-| 
A:-4-4-4-4--4-4-4--4-4-4-4--4-4-4-| 
E:--------------------------------| 
 
gt2 
   repeat 
e:-------------9------------------------9------------------------9------------| 
B:--------9------9-----------------9------9-----------------9------9----------| 
G:-----10---10-----10----10-----10---10-----10----10-----10---10-----10----10-| 
D:--11----------------11-----11----------------11-----11----------------11----| 
A:----------------------------------------------------------------------------| 
E:----------------------------------------------------------------------------| 
 
e:------------------------------| 
B:------------------------------| 
G:-----3-3---3-3------3-3---3-3-| 
D:-----4-4---4-4------4-4---4-4-| 
A:-----4-4---4-4------4-4---4-4-| 
E:-2-2-2-2-2-2-2--2-2-2-2-2-2-2-| 
 
e:------------------------------| 
B:------------------------------| 
G:-----3-3---3-3------3-3---3-3-| 
D:-----4-4---4-4------4-4---4-4-| 
A:-----4-4---4-4------4-4---4-4-| 
E:-2-2-2-2-2-2-2--2-2-2-2-2-2-2-| 
 
e:-------------------------------| 
B:-------------------------------| 
G:-----4-4---4-4-------4-4---4-4-| 
D:-----4-4---4-4-------4-4---4-4-| 
A:-2-2-2-2-2-2-2--2-2--2-2-2-2-2-| 
E:-------------------------------| 
 
they are fighting the system like a 
e:---------------| 
B:---------------| 
G:-----3-3---3-3-| 
D:-----4-4---4-4-| 
A:-----4-4---4-4-| 
E:-2-2-2-2-2-2-2-| 
 
2 modern day robin hoods 
e:--------------------------------| 
B:--------------------------------| 
G:-----6-6----6-6------6-6----6-6-| 
D:-----6-6----6-6------6-6----6-6-| 
A:-4-4-4-4--4-4-4--4-4-4-4--4-4-4-| 
E:--------------------------------| 
 
 
e:---------------| 
B:---------------| 
G:-----3-3---3-3-| 
D:-----4-4---4-4-| 
A:-----4-4---4-4-| 
E:-2-2-2-2-2-2-2-| 
 
e:----------------| 
B:----------------| 
G:-----4-4---4-4--| 
D:-----4-4---4-4--| 
A:-2-2-2-2-2-2-2--| 
E:----------------| 
 
e:---| 
B:---| 
G:-3-| 
D:-4-| 
A:-4-| 
E:-2-| 
 

	  

Search Paypal
auto scroll beats size up size down change color hide chords drawings
tab show chords e-chords YouTube Clip e-chords hide all tabs e-chords go to top tab