Weezer

home > Weezer

Do You Want Me To Stay Tab

Weezer

Difficulty: nolevelnolevel

tuner correct add songbook print version text version save to e-mail
chordsukulelecavacokeyboardtabbassdrumsharmonicsflute Guitar Pro
chords

Do You Want Me To Stay

  		Tabber: Tom Wilga 
 
Play the order shown... 
 
Intro: 
 
e :-----------------|-----------------|-----------------|-----------------|-----------------| 
B :-----------------|-----------------|-----------------|-----------------|-----------------| 
G :6-------------3--|---1-------------|7-6-4-2--3--1----|7-6-4-2--3--1----|7-7-7-7-9-9------| 
D :7-------------4--|---2-------------|---------4--2----|---------4--2----|7-7-7-7-9-9-7-7-7| 
A :7-------------4--|---2--------0----|---------4--2----|---------4--2----|5-5-5-5-7-7-7-7-7| 
E :5-------------2--|---------0h2-----|---------2-------|---------2-------|------------5-5-5| 
 
   Take a listen around you...         
 
 
Verse: 
 
e :------------------|-----------------|-----------------|-----------------| 
B :------------------|-----------------|-----------------|-----------------| 
G :7-5-4-2-----3--1--|7-6-4-2-----3--1-|7-6-4-2-----3--1-|7-7-7-7-9-9------| 
D :--------4-2-4--2--|--------4-2-4--2-|--------4-2-4--2-|7-7-7-7-9-9-7-7-7| 
A :------------4--2--|------------4--2-|------------4--2-|5-5-5-5-7-7-7-7-7| 
E :------------2-----|---------------2-|------------2----|------------5-5-5| 
 
 
Bridge: 
 
e :-----------------|-----------------| 
B :-----------------|-----------------| 
G :7-7-7-7-7-7-7-7-7|-----------------| 
D :7-7-7-7-7-7-7-7-7|9-9-9-9-9-9-9-9-9| 
A :5-5-5-5-5-5-5-5-5|9-9-9-9-9-9-9-9-9| 
E :-----------------|7-7-7-7-7-7-7-7-7| 
 
 
Chorus: 
 
e :-----------------|-----------------|-----------------|-----------------| 
B :-----------------|-----------------|-----------------|-----------------| 
G :7-7-----9-9-9-9--|7-7-----9-9-9-9--|7-7-----9-9-9-9--|-----------------| 
D :7-7-7-7-9-9-9-9--|7-7-7-7-9-9-9-9--|7-7-7-7-9-9-9-9--|-----------------| 
A :5-5-7-7-7-7-7-7--|5-5-7-7-7-7-7-7--|5-5-7-7-7-7-7-7--|-----------------| 
E :----5-5----------|----5-5----------|----5-5----------|-----------------| 
 
 
Solo: 
   
e :------------2-0--|-----------------|------------2-0--|-----------------| 
B :-----------------|-----------------|-----------------|-----------------| 
G :7-6-4-2----------|7-6-4-2-2-9-6-7-6|7-6-4-2----------|2--2--4-4-2------| 
D :--------4-2------|-----------------|--------4-2------|-----------------| 
A :-----------------|-----------------|-----------------|-----------------| 
E :-----------------|-----------------|-----------------|-----------------| 
 
 
Bridge: 
 
e :-----------------|-----------------| 
B :-----------------|-----------------| 
G :7-7-7-7-7-7-7-7-7|-----------------| 
D :7-7-7-7-7-7-7-7-7|9-9-9-9-9-9-9-9-9| 
A :5-5-5-5-5-5-5-5-5|9-9-9-9-9-9-9-9-9| 
E :-----------------|7-7-7-7-7-7-7-7-7| 
 
 
Chorus: 
 
e :-----------------|-----------------|-----------------|-----------------| 
B :-----------------|-----------------|-----------------|-----------------| 
G :7-7-----9-9-9-9--|7-7-----9-9-9-9--|7-7-----9-9-9-9--|-----------------| 
D :7-7-7-7-9-9-9-9--|7-7-7-7-9-9-9-9--|7-7-7-7-9-9-9-9--|-----------------| 
A :5-5-7-7-7-7-7-7--|5-5-7-7-7-7-7-7--|5-5-7-7-7-7-7-7--|-----------------| 
E :----5-5----------|----5-5----------|----5-5----------|-----------------| 
 
 
Verse: 
 
e :------------------|-----------------|-----------------|-----------------| 
B :------------------|-----------------|-----------------|-----------------| 
G :7-5-4-2-----3--1--|7-6-4-2-----3--1-|7-6-4-2-----3--1-|7-7-7-7-9-9------| 
D :--------4-2-4--2--|--------4-2-4--2-|--------4-2-4--2-|7-7-7-7-9-9-7-7-7| 
A :------------4--2--|------------4--2-|------------4--2-|5-5-5-5-7-7-7-7-7| 
E :------------2-----|---------------2-|------------2----|------------5-5-5| 
 

	  

Full key step upFull key step up
Half key step upHalf key step up
Half key step downHalf key step down
Full key step downFull key step down
Search Paypal
auto scroll beats size up size down change color hide chords drawings
tab show chords e-chords YouTube Clip e-chords hide all tabs e-chords go to top tab