Weezer

home > Weezer

American Girls Tab

Weezer

Difficulty: ExpertExpert

tuner correct add songbook print version text version save to e-mail
chordsukulelecavacokeyboardtabbassdrumsharmonicsflute Guitar Pro
chords

American Girls

  		TABBED BY:	DJSeebs 
 
This song is very simple. 
The entire song is just: 
 
A D G A 
 
repeat, repeat, repeat... 
Use open chords 
 
 
|--0----0-0-2----3-3- 
|--2----2-2-3----3-3- 
|--2----2-2-2----0-0- 
|--2----2-2-0----0-0- 
|--0----0-0-0----2-2- 
|-------0-0------3-3- 
 
Sometimes they throw in an extra A toward the end. 
 
Solo is NOT 100% correct: 
 
---------------------------------------------------------------------------- 
---------------------------------------------------------------------------- 
--------------9---7---6----------------------------------------------------- 
------------------------------------------6-6----4h5-5---4h5-5----4h5-5-5--- 
---0---0-0---------------------4/5-5--4---5-5------------------------------- 
---------------------------------------------------------------------------- 
 
 
Slight change later on.. 
 
------------------------------------------------------------------- 
------------------------------------------------------------------- 
------------------------------------------------------------------- 
-------------4h5-5--4h5-5--4--6--4--7------------------------------ 
-0---0-0----------------------------------------------------------- 
------------------------------------------------------------------- 
 
I'm open for suggestions/corrections on the solo. 
 

	  

Full key step upFull key step up
Half key step upHalf key step up
Half key step downHalf key step down
Full key step downFull key step down
Search Paypal
auto scroll beats size up size down change color hide chords drawings
tab show chords e-chords YouTube Clip e-chords hide all tabs e-chords go to top tab