Wednesday 13

home > Wednesday 13

Transylvania 90210 (acoustic) Tab

Wednesday 13

Difficulty: nolevelnolevel

by fernsantana

tuner correct add songbook print version text version save to e-mail
chordsukulelecavacokeyboardtabbassdrumsharmonicsflute Guitar Pro
chords

Transylvania 90210 (acoustic)

  		

Intro 

D-----------------------------------------------| 
A-----------------------------------------------| 
F-----------------------------------------------| 
C---5----2------5----2------5----0-----5----2---| 
G---5----2------5----2------5----0-----5----2---| 
C---5----2------5----2------5----0-----5----2---| 

Verse 

D-----------------------------------------------| 
A-----------------------------------------------| 
F-----------------------------------------------| 
C---5----2------5----2------5----0-----5----2---| 
G---5----2------5----2------5----0-----5----2---| 
C---5----2------5----2------5----0-----5----2---| (x2) 

Chorus 


D-------------------------------------------------| 
A-------------------------------------------------| 
F-------------------------------------------------| 
C---7--10-----10-10-0-7---7-7-0--10---10-10-0-7---| 
G---7--10-----10-10-0-7---7-7-0--10---10-10-0-7---| 
C---7--10-----10-10-0-7---7-7-0--10---10-10-0-7---| 

D--------------------------------------------------------| 
A--------------------------------------------------------| 
F--------------------------------------------------------| 
C----7-7-0--10---10-10-0--7---7-7-0--10---10-10-10--12---| 
G----7-7-0--10---10-10-0--7---7-7-0--10---10-10-10--12---| 
C----7-7-0--10---10-10-0--7---7-7-0--10---10-10-10--12---| 

Verse 

D-----------------------------------------------| 
A-----------------------------------------------| 
F-----------------------------------------------| 
C---5----2------5----2------5----0-----5----2---| 
G---5----2------5----2------5----0-----5----2---| 
C---5----2------5----2------5----0-----5----2---| (x3) 

Chorus 

D-------------------------------------------------| 
A-------------------------------------------------| 
F-------------------------------------------------| 
C---7--10-----10-10-0-7---7-7-0--10---10-10-0-7---| 
G---7--10-----10-10-0-7---7-7-0--10---10-10-0-7---| 
C---7--10-----10-10-0-7---7-7-0--10---10-10-0-7---| 

D--------------------------------------------------------| 
A--------------------------------------------------------| 
F--------------------------------------------------------| 
C----7-7-0--10---10-10-0--7---7-7-0--10---10-10-10--12---| 
G----7-7-0--10---10-10-0--7---7-7-0--10---10-10-10--12---| 
C----7-7-0--10---10-10-0--7---7-7-0--10---10-10-10--12---| 

Solo 

D-----------------------------------------------------| 
A----5-5-7---8---7---5---3---5-5-7---8---10---8---7---| 
F-----------------------------------------------------| 
C-----------------------------------------------------| 
G-----------------------------------------------------| 
C-----------------------------------------------------| 

D----------------------------------------------------------| 
A----5-5-7---8---7---5---3---5-5-7---8---10---8---7--------| 
F------------------------------------------------------7---| 
C----------------------------------------------------------| 
G----------------------------------------------------------| 
C----------------------------------------------------------| 


D----------------------------------------------------------| 
A----5-5-7---8---7---5---3---5-5-7---8---10---8---7--------| 
F------------------------------------------------------5---| 
C----------------------------------------------------------| 
G----------------------------------------------------------| 
C----------------------------------------------------------| 

Chorus 

D-------------------------------------------------| 
A-------------------------------------------------| 
F-------------------------------------------------| 
C---7--10-----10-10-0-7---7-7-0--10---10-10-0-7---| 
G---7--10-----10-10-0-7---7-7-0--10---10-10-0-7---| 
C---7--10-----10-10-0-7---7-7-0--10---10-10-0-7---| 

D--------------------------------------------------------| 
A--------------------------------------------------------| 
F--------------------------------------------------------| 
C----7-7-0--10---10-10-0--7---7-7-0--10---10-10-10--12---| 
G----7-7-0--10---10-10-0--7---7-7-0--10---10-10-10--12---| 
C----7-7-0--10---10-10-0--7---7-7-0--10---10-10-10--12---| 

Outro 

D-----------------------------------------------------| 
A----5-5-7---8---7---5---3---5-5-7---8---10---8---7---| 
F-----------------------------------------------------| 
C-----------------------------------------------------| 
G-----------------------------------------------------| 
C-----------------------------------------------------| (x3) 


D----------------------------------------------------------| 
A----5-5-7---8---7---5---3---5-5-7---8---10---8---7----5---| 
F----------------------------------------------------------| 
C----------------------------------------------------------| 
G----------------------------------------------------------| 
C----------------------------------------------------------| 
	  

Search Paypal
auto scroll beats size up size down change color hide chords drawings
tab show chords e-chords YouTube Clip e-chords hide all tabs e-chords go to top tab