We Were Promised Jetpacks

home > We Were Promised J...

A Half Built House Tab

We Were Promised Jetpacks

Difficulty: nolevelnolevel

by bombaXXX

tuner correct add songbook print version text version save to e-mail
chordsukulelecavacokeyboardtabbassdrumsharmonicsflute Guitar Pro
chords

A Half Built House

  		

Intro: 

Riff 1 

   (G) 
e|--15-14--------------| 
B|--------15-12--------| 
G|--------------12-----| 
D|---------------------| 
A|---------------------| 
E|---------------------| 

Riff 2 

   (C) 
e|---------------------| 
B|--13-12--------------| 
G|--------12-----------| 
D|-----------14--------| 
A|--------------15-----| 
E|---------------------| 

Riff 3 

   (C) 
e|---------------------| 
B|--13-12--------------| 
G|--------12-----------| 
D|--------------14-----| 
A|---------------------| 
E|---------------------| 

Intro Pattern: 

Riff 1 (8x) 
Riff 2 (8x) 
Riff 1 (8x) 
Riff 2 (3x) 
Riff 3 (8x, fading out) 

OUTRO: 

Part 1: 

    G           C           F                  Fmaj7 
e|--15---------------------(13)---------13-----12-------| 
B|--12----------13----------10----------10-----10-------| 
G|--12----------12----------10----------10-----10-------| 
D|--------------14----------10--------------------------| 
A|------------------------------------------------------| 
E|------------------------------------------------------| 

Part 2: 

    Dm                 F 
e|--10----------10-----8---| 
B|--10----------10-----10--| 
G|--10----------10-----10--| 
D|-------------------------| 
A|-------------------------| 
E|-------------------------| 

Part 3: 

    F                   A#            A#6 
e|--8-------------8-----6--------------------| 
B|--10------------10----7--------------------| 
G|--10------------10----8--------------------| 
D|-(10)----------(10)---8-------(8)--(10)----| 
A|--8-------------8-----6--------------------| 
E|-------------------------------------------| 

Part 4: 

    A#             A#6 
e|--6---------------------| 
B|--7---------------------| 
G|--8---------------------| 
D|--8--------(8)--(10)----| 
A|--6---------------------| 
E|------------------------| 

Whole Song Pattern: 

Intro 

Riff 1 (8x) 
Riff 2 (8x) 
Riff 1 (8x) 
Riff 2 (3x) 
Riff 3 (8x, fade out) 

Outro 

Part 1 (4x) 
Part 2 
Part 3 (4x) 
Part 4 (fade out) 


| /  slide up 
| \  slide down 
| h  hammer-on 
| p  pull-off 
| ~  vibrato 
| +  harmonic 
| x  mute note 

************************ 
	  

Full key step upFull key step up
Half key step upHalf key step up
Half key step downHalf key step down
Full key step downFull key step down
Search Paypal
auto scroll beats size up size down change color hide chords drawings
tab show chords e-chords YouTube Clip e-chords hide all tabs e-chords go to top tab