We Came As Romans

home > We Came As Romans

Understanding What Weve Grown To Be Tab

We Came As Romans

Difficulty: nolevelnolevel

by carlluz

tuner correct add songbook print version text version save to e-mail
chordsukulelecavacokeyboardtabbassdrumsharmonicsflute Guitar Pro
chords

Understanding What Weve Grown To Be

  		
intro 
/--------------------------------------------------------------| 
/--------------------------------------------------------------| 
/--------------------------------------------------------------| 
/-4~444444-77-----------0~000000-777-6-2--4~444444-77----------| 
/-4~444444----44-00-40--0~000000-777-6-2--4~444444----44-00-40-| 
/-4~444444--------------0~000000-777-6-2--4~444444-------------| 


-------------------| 
-------------------| 
-------------------| 
-0~000000-999-7-9--|   play this intro twice through then carry on 
-0~000000-999-7-9--| 
-0~000000-999-7-9--| 


Pause during the interlude 
 ... 


/------------------------------------------------| 
/------------------------------------------------| 
/------------~222--------------------------------| 
/-4444-4-4-4-~2222-~2222-~0000-0-0-0-~0022-~2222-| this is played 4 times 
/-4444-4-4-4-~0002-~2222-~0000-0-0-0-~0022-~2222-| 
/-4444-4-4-4-----2-~2222-~0000-0-0-0-~0022-~2222-| 

next play this verse twice 

/-------------------------------------| 
/-------------------------------------| 
/-------------------------------------|     x1 
/-4444-7-4--4444-7-4--4444-7-4-6-4-4~-| 
/-4444-7-4--4444-7-4--4444-7-4-6-4-4~-| 
/-4444-7-4--4444-7-4--4444-7-4-6-4-4~-| 

--------------------------------------| 
--------------------------------------| 
---------------------------7--6---4---| 
--4444-7-4--4444-7-4--4444-7--6---4---| 
--4444-7-4--4444-7-4--4444---4--4-----| 
--4444-7-4--4444-7-4--4444---4--4-----| 

--------------------------------------| 
--------------------------------------| 
---------------------7---6---4--------| 
--000000000000000000-x---x---x--------|     x2 
--000000000000000000-5-0-4-0-2--------| 
--000000000000000000---0---0----------| 

then play this twice 

/--------------------------------------------------------------| 
/--------------------------------------------------------------| 
/--------------------------------------------------------------| 
/-4~444444-77-----------0~000000-777-6-2--4~444444-77----------| 
/-4~444444----44-00-40--0~000000-777-6-2--4~444444----44-00-40-| 
/-4~444444--------------0~000000-777-6-2--4~444444-------------| 


--------------------|    back to beginning 
--------------------| 
--------------------| 
--0~000000-999-7-9--| 
--0~000000-999-7-9--| 
--0~000000-999-7-9--| 

next play 

/---------------------------| 
/---------------------------| 
/-444444444444-777777777777-|  x2 
/-xxxxxxxxxxxx-xxxxxxxxxxxx-| 
/-222222222222-555555555555-| 
/---------------------------| 

speed it up 

/-------------------------------------- 
/--------------------------------------| 
/-444444444444444444-777777777777777777| 
/-xxxxxxxxxxxxxxxxxx-xxxxxxxxxxxxxxxxxx|   x2 
/-222222222222222222-555555555555555555| 
/--------------------------------------| 

hardest part but also the best part 

/---2------2------3-------------------0----3---2--| 
/----3------3------3---5s-7s-5s-7s-----0----0---0-| 
/-----4------4------4-------------------0---------| 
/-------------------------------------------------| 
/-2-----------------------------------------------| 
/-----------------------------------5-------------| 
    its easier if you bar your first finger 
	  

Search Paypal
auto scroll beats size up size down change color hide chords drawings
tab show chords e-chords YouTube Clip e-chords hide all tabs e-chords go to top tab