We Came As Romans

home > We Came As Romans

Glad You Came Tab

We Came As Romans

Difficulty: nolevelnolevel

by victborges

tuner correct add songbook print version text version save to e-mail
chordsukulelecavacokeyboardtabbassdrumsharmonicsflute Guitar Pro
chords

Glad You Came

  		


VERSE - SECOND HALF 
|---------------------------------------------------------------------------| 
|---------------------------------------------------------------------------| 
|---------------------------------------------------------------------------| 
|-3-3-33-3/5/7-77-7--7-77-7---------3-3-33-3/5/7-77-7-----------------------| 
|-3-3-33-3/5/7-77-7--7-77-7---------3-3-33-3/5/7-77-7---7-------------------| 
|-3-3-33-3/5/7-77-7--7-77-7---------3-3-33-3/5/7-77-7--7-7107---------------| 
      xx     x xx    x xx               xx     x xx    x x  x 

|---------------------------------------------------------------------------| 
|---------------------------------------------------------------------------| 
|---------------------------------------------------------------------------| 
|-3-3-33-3/5/7-77-7--7-77-7---------3-333-3333/5----------------------------| 
|-3-3-33-3/5/7-77-7--7-77-7---------3-333-3333/5----------------------------| 
|-3-3-33-3/5/7-77-7--7-77-7---------3-333-3333/5----------------------------| 
      xx     x xx    x xx           x xxx 

CHORUS 
|---------------------------------------------------------------------------| 
|---------------------------------------------------------------------------| 
|---------------------------------------------------------------------------| 
|-3-333-33-55-7-777-7-777---------3-333-33-55-7-777-5-555-------------------| 
|-3-333-33-55-7-777-7-777---------3-333-33-55-7-777-5-555-------------------| 
|-3-333-33-55-7-777-7-777---------3-333-33-55-7-777-5-555-------------------| 
  x xxx xx xx x xxx x xxx         x xxx xx xx x xxx x xxx     

|---------------------------------------------------------------------------| 
|---------------------------------------------------------------------------| 
|---------------------------------------------------------------------------| 
|-3-333-33-55-7-777-7-777---------3-333-333/5-------------------------------| 
|-3-333-33-55-7-777-7-777---------3-333-333/5-------------------------------| 
|-3-333-33-55-7-777-7-777---------3-333-333/5-------------------------------| 
  x xxx xx xx x xxx x xxx         x xxx xxx    

BREAKDOWN 
|-----------------------------------------------3+--------------------------| 
|------------------------------------------------3+-------------------------| 
|-------------------------------------------------3+------------------------| 
|-3-33-333-3---7-77-----------------------3-33-----3+-----------------------| 
|-3-33-333-3---7-77--7--------------------3-33------3+----------------------| 
|-3-33-333-3---7-77-7-71077---------------3-33-------3+---------------------| 
  x xx xxx     x xx x x  xx                 x 
                                                
                                     GUITAR ONE           GUITAR TWO 
|-------------------------------------17-15---------------------------------| 
|-------------------------------------------17--------------10-8------------| 
|----------------------------------------------------------------9----------| 
|-101010101010--------------------------------------------------------------| 
|-101010101010--------------------------------------------------------------| 
|-101010101010-9b10-----3-3-3-----------------------------------------------| 
  x x x x x x 

|------------------------------3+-------------------------------------------| 
|-------------------------------3+------------------------------------------| 
|--------------------------------3+-----------------------------------------| 
|-7-7777-----------------3-33-----3+------------------------------3---------| 
|-7-7777--7--------------3-33------3+-------33333333-22-33-22-----3---------| 
|-7-7777-7-71077---------3-33-------3+------------------------55--3---------| 
  x xxxx x x  xx           x                xxxxxxxx xx xx xx xx 

I'm not too sure about the first half of the second verse. 

SECOND VERSE - SECOND HALF 
|---------------------------------------------------------------------------| 
|---------------------------------------------------------------------------| 
|---------------------------------------------------------------------------| 
|-3-33-333---7-77-77-7-77-7/3-33-333---77777-10-10-10-----------------------| 
|-3-33-333---7-77-77-7-77-7/3-33-333---77777-10-10-10-----------------------| 
|-3-33-333---7-77-77-7-77-7/3-33-333---77777-10-10-10-----------------------| 
  x xx xx    x xx xx x xx     xx xx    xxxxx x  x  x 

|---------------------------------------------------------------------------| 
|---------------------------------------------------------------------------| 
|---------------------------------------------------------------------------| 
|-3-33-333---7-77-77-7-77-7/3-33-333---3/5----------------------------------| 
|-3-33-333---7-77-77-7-77-7/3-33-333---3/5----------------------------------| 
|-3-33-333---7-77-77-7-77-7/3-33-333---3/5----------------------------------| 
  x xx xx    x xx xx x xx     xx xx   

REPEAT CHORUS 

REPEAT BREAKDOWN 

OUTRO BREAKDOWN 
GUITAR ONE: 
|---------------------------------------------------------------------------| 
|---------------------------------------------------------------------------| 
|---------------------------------------------------------------------------| 
|-7~-9-10~-7~-9-10~-9~-7~---------------------------------------------------| X2 
|---------------------------------------------------------------------------| 
|---------------------------------------------------------------------------| 

GUITAR TWO: 
|---------------------------------------------------------------------------| 
|---------------------------------------------------------------------------| 
|---------------------------------------------------------------------------| 
|-3-33-333---7-7777-77-77---3-33-333---101010101010-------------------------| 
|-3-33-333---7-7777-77-77---3-33-333---101010101010-------------------------| 
|-3-33-333---7-7777-77-77---3-33-333---101010101010-9b10--------------------| 
  x xx xx    x xxxx xx xx   x xx xxx   x x x x x x 

            GUITAR ONE            GUITAR TWO 
|------------17-15----------------------------------------------------------| 
|-------------------17--------------10-8------------------------------------| 
|-----------------------------------------9---------------------------------| 
|---------------------------------------------------------------------------| 
|---------------------------------------------------------------------------| 
|-3-3-3---------------------------------------------------------------------| 

|---------------------------------------------------------------------------| 
|---------------------------------------------------------------------------| 
|---------------------------------------------------------------------------| 
|-7-7777-77-77---3-33-333---3/5-5-5-5---------------------------------------| 
|-7-7777-77-77---3-33-333---3/5-5-5-5---------------------------------------| 
|-7-7777-77-77---3-33-333---3/5-5-5-5---------------------------------------| 
  x xxxx xx xx   x xx xxx          

OUTRO - VOCALS/PIANO  
	  

Search Paypal
auto scroll beats size up size down change color hide chords drawings
tab show chords e-chords YouTube Clip e-chords hide all tabs e-chords go to top tab