Washya

home > Washya

Brothers In Arms Tab

Washya

Difficulty: nolevelnolevel

by hugo%5Frodrigues

tuner correct add songbook print version text version save to e-mail
chordsukulelecavacokeyboardtabbassdrumsharmonicsflute Guitar Pro
chords

Brothers In Arms

  		

Tuning: Drop C (DFCGC) 
intro 
D|-------------------------------------------------------| 
A|-------------------------------------------------------| 
F|-------------------------------------------------------| 
C|----------------/7h8p7h8p7-----------------------------| 
G|-5-5-7-8-7-----------------9-5/7--5-7-8-7--------------| 
C|-----------3/5----------------------------7-8-10-8-3/5-|x2 

Part 2 Verses 
D|---------------------------------------------------------------| 
A|---------------------------------------------------------------| 
F|---------------------------------------------------------------| 
C|---------------------------------------------------------------| 
G|---------------------------------------------------2-1---------| 
C|-0000-0-1-0000-0-1-0000-0-1-0000-0-1-0000-0-1-0000-----3-1-0-1-| 
PM **** *   **** *   **** *   **** *   **** *   ****  

D|-----------------------------------------------------------------| 
A|-----------------------------------------------------------------| 
F|-----------------------------------------------------------------| 
C|-----------------------------------------------------------------| 
G|---------------------------------------------------6-5-------5---| 
C|-0000-0-1-0000-0-1-0000-0-1-0000-0-1-0000-0-1-0000-----6-5-6---1-| 
PM **** *   **** *   **** *   **** *   **** *   ****  

D|-------------------------------------------------------------------| 
A|-------------------------------------------------------------------| 
F|-------------------------------------------------------------------| 
C|-------------------------------------------------------------------| 
G|---------------------------------------------------5-6-5-0-1-0-3-0-| 
C|-0000-0-1-0000-0-1-0000-0-1-0000-0-1-0000-0-1-0000-5-6-5-0-1-0-3-0-| 
PM **** *   **** *   **** *   **** *   **** *   **** 

Chorus 
D|---------------------------------------------------------------------------------------------| 
A|---------------------------------------------------------------------------------------------| 
F|---------------------------------------------------------------------------------------------| 
C|---------------------------------------------------------------------------------------------| 
G|-5-5-5-5-5-5-5-6-5-3-3-3-3-3-3-3-4-3-1-1-1-1-1-1-1-3-2-1-1-1-1-1-1-1-6-5-0----5---6----2---3-| 
C|-5-5-5-5-5-5-5-6-5-3-3-3-3-3-3-3-4-3-1-1-1-1-1-1-1-3-2-1-1-1-1-1-1-1-6-5-0-66---6---33---3---| 
PM * * * * * * *   * * * * * * * *     * * * * * * *     * * * * * * *       **   *   **   *  
************************************ 

| /   slide up 
| \   slide down 
| h   hammer-on 
| p   pull-off 
| ~   vibrato 
| +   harmonic 
| x   Mute note 
| b   Bend 
| pb  Pre-bend 
| br  Bend release 
| pbr Pre-bend release 
| brb Bend release bend 

************************************ 
	  

Full key step upFull key step up
Half key step upHalf key step up
Half key step downHalf key step down
Full key step downFull key step down
Search Paypal
auto scroll beats size up size down change color hide chords drawings
tab show chords e-chords YouTube Clip e-chords hide all tabs e-chords go to top tab