Walls Of Jericho

Fixing Broken Hearts

Walls Of Jericho

tabs

by  PAULANTUNES

save to print version add songbook text version e-mail correct tuner
chordsukulelecavacokeyboardtabbassdrumsharmonicaflute Guitar Pro
close

there isn't a video lesson for this song

chords

Fixing Broken Hearts

	  		

Tuning: D G C F A D 

4/4 

                                                    
           
|-------------------------|-----------0-(0)-(0)------------------| 
|-------------------------|-----------0-(0)-(0)------------------| 
|-------------------------|--------------------------------------| 
|-7-9-9-7-9-9-7-9-9-7-9-9-|-10-10-10-10-10--10--12-12-12-5-10-12-| 
|-5-7-7-5-7-7-5-7-7-5-7-7-|--8--8--8--8--8---8--10-10-10-3--8-10-| 
|-5-7-7-5-7-7-5-7-7-5-7-7-|--8--8--8--8--8---8--10-10-10-3--8-10-| 

    
|-------------------------|--------------------------------------| 
|-------------------------|--------------------------------------| 
|-------------------------|--------------------------------------| 
|-------------------------|---------------------------------3--5-| 
|-------------------------|--3-------------------5-------5--1--3-| 
|-------------------------|--1-------------------3-------3-------| 


|-----------------------------------|-----------0-(0)-(0)---------------| 
|-----------------------------------|-----------0-(0)-(0)---------------| 
|-----------------------------------|-----------------------------------| 
|-----------------7-9-9-7-9-9-7-9-9-|-10-10-10-10-10--10--5-5-5-5-12-10-| 
|-----------------5-7-7-5-7-7-5-7-7-|--8--8--8--8--8---8--3-3-3-3-10--8-| 
|-0-0-0---0-0-0---5-7-7-5-7-7-5-7-7-|--8--8--8--8--8---8--3-3-3-3-10--8-| 

|-----------------------------------|-----------------------------------| 
|-----------------------------------|-----------------------------------| 
|-----------------------------------|-----------------------------------| 
|-----------------------------------|------------------------------5--3-| 
|-----------------------------------|--3------------------5-----5--3--1-| 
|-----------------------------------|--1------------------3-----3-------| 

 
||--------------------------|-----------0-(0)-(0)-------------------| 
||o-------------------------|-----------0-(0)-(0)-------------------| 
||--------------------------|---------------------------------------| 
||--7-9-9-7-9-9-7-9-9-7-9-9-|-10-10-10-10-10--10--12-12-12-5-10-12--| 
||o-5-7-7-5-7-7-5-7-7-5-7-7-|--8--8--8--8--8---8--10-10-10-3--8-10--| 
||--5-7-7-5-7-7-5-7-7-5-7-7-|--8--8--8--8--8---8--10-10-10-3--8-10--| 


||--------------------------|---------------------------------------| 
||o-------------------------|---------------------------------------| 
||--------------------------|---------------------------------------| 
||--------------------------|---------------------------------3--5--| 
||o-------------------------|--3-------------------5-------5--1--3--| 
||--------------------------|--1-------------------3-------3--------| 
-----------|| 
|-------------------------|-----------0-(0)-(0)---------------o|| 
|-------------------------|------------------------------------|| 
|-7-9-9-7-9-9-7-9-9-7-9-9-|-10-10-10-10-10--10--5-5-5-5-12-10--|| 
|-5-7-7-5-7-7-5-7-7-5-7-7-|--8--8--8--8--8---8--3-3-3-3-10--8-o|| 
|-5-7-7-5-7-7-5-7-7-5-7-7-|--8--8--8--8--8---8--3-3-3-3-10--8--|| 


|-------------------------|------------------------------------|| 
|-------------------------|-----------------------------------o|| 
|-------------------------|------------------------------------|| 
|-------------------------|------------------------------5--3--|| 
|-------------------------|--3------------------5-----5--3--1-o|| 
|-------------------------|--1------------------3-----3--------|| 


|---------------|--------------| 
|---------------|--------------| 
|--9-----7--10--|--9-----5--4--| 
|---------------|--------------| 
|--7-----5---8--|--7-----3--2--| 
|---------------|--------------| 

 
|---------------|--------------| 
|---------------|--------------| 
|---------------|--------------| 
|-14----12------|-14----10--9--| 
|---------------|--------------| 
|-12----10------|-12-----8--7--| 


|---------------------------------|---------------------------------| 
|---------------------------------|---------------------------------| 
|---------------------------------|---------------------------------| 
|---------------------------------|---------------------------------| 
|-2-------------------------------|---------------------------------| 
|-0-------------------------------|---------------------------------| 


|---------------------------------|---------------------------------| 
|---------------------------------|---------------------------------| 
|---------------------------------|---------------------------------| 
|---------------------------------|---------------------------------| 
|---7---7-----7-6-----------------|---7---7-------7-6---------------| 
|-0---0---0-8-----0-0-0-0-0-0-0-0-|-0---0---0-0-8-----0-0-0-0-0-0-0-| 


|---------------------------------|------------------------------------------| 
|---------------------------------|------------------------------------------| 
|---------------------------------|------------------------------------------| 
|---------------------------------|------------------------------------------| 
|---7---7-----7-6-----------------|------------------------------------------| 
|-0---0---0-8-----0-0-0-0-0-0-0-0-|-0-0-0---0-0-0---0-0-0---0-0-0---0----(0)-| 


||----------------------------------|----------------------------------| 
||o---------------------------------|----------------------------------| 
||----------------------------------|----------------------------------| 
||----------------------------------|----------------------------------| 
||o---7---7-----7-6-----------------|---7---7-------7-6----------------| 
||--0---0---0-8-----0-0-0-0-0-0-0-0-|-0---0---0-0-8-----0-0-0-0-0-0-0--| 



|---------------------------------| 
|---------------------------------| 
|---------------------------------| 
|---------------------------------| 
|---7---7-----7-6-----------------| 
|-0---0---0-8-----0-0-0-0-0-0-0-0-| 



|--------------------------------------------------|| 
|-------------------------------------------------o|| 
|--------------------------------------------------|| 
|--------------------------------------------------|| 
|---7---7-----7-6---------------------------------o|| 
|-0---0---0-8-----0-0-0---0-0-0---0-0-0---0-0-0----|| 



 
|----------|----------------||----------|----------------| 
|----------|----------------||----------|----------------| 
|----------|----------------||----------|----------------| 
|----------|----------7---7-||-9--------|----------------| 
|-2--------|-(2)------5-2-5-||-7--------|-3----5---3-5-3-| 
|-0--------|-(0)--------0---||----------|-1----3---1-3-1-| 




||----------------------------------|----------------------------------| 
||o---------------------------------|----------------------------------| 
||----------------------------------|----------------------------------| 
||----------------------------------|----------------------------------| 
||o---7---7-----7-6-----------------|---7---7-------7-6----------------| 
||--0---0---0-8-----0-0-0-0-0-0-0-0-|-0---0---0-0-8-----0-0-0-0-0-0-0--| 




|---------------------------------| 
|---------------------------------| 
|---------------------------------| 
|---------------------------------| 
|---7---7-----7-6-----------------| 
|-0---0---0-8-----0-0-0-0-0-0-0-0-| 




|--------------------------------------------------|| 
|-------------------------------------------------o|| 
|--------------------------------------------------|| 
|--------------------------------------------------|| 
|---7---7-----7-6---------------------------------o|| 
|-0---0---0-8-----0-0-0---0-0-0---0-0-0---0-0-0----|| 



   
||--------------------------|-----------0-(0)-(0)-------------------| 
||o-------------------------|-----------0-(0)-(0)-------------------| 
||--------------------------|---------------------------------------| 
||--7-9-9-7-9-9-7-9-9-7-9-9-|-10-10-10-10-10--10--12-12-12-5-10-12--| 
||o-5-7-7-5-7-7-5-7-7-5-7-7-|--8--8--8--8--8---8--10-10-10-3--8-10--| 
||--5-7-7-5-7-7-5-7-7-5-7-7-|--8--8--8--8--8---8--10-10-10-3--8-10--| 

 
||--------------------------|---------------------------------------| 
||o-------------------------|---------------------------------------| 
||--------------------------|---------------------------------------| 
||--------------------------|---------------------------------3--5--| 
||o-------------------------|--3-------------------5-------5--1--3--| 
||--------------------------|--1-------------------3-------3--------| 


 
|-------------------------|-----------0-(0)-(0)----------------|| 
|-------------------------|-----------0-(0)-(0)---------------o|| 
|-------------------------|------------------------------------|| 
|-7-9-9-7-9-9-7-9-9-7-9-9-|-10-10-10-10-10--10--5-5-5-5-12-10--|| 
|-5-7-7-5-7-7-5-7-7-5-7-7-|--8--8--8--8--8---8--3-3-3-3-10--8-o|| 
|-5-7-7-5-7-7-5-7-7-5-7-7-|--8--8--8--8--8---8--3-3-3-3-10--8--|| 


|-------------------------|------------------------------------|| 
|-------------------------|-----------------------------------o|| 
|-------------------------|------------------------------------|| 
|-------------------------|------------------------------5--3--|| 
|-------------------------|--3------------------5-----5--3--1-o|| 
|-------------------------|--1------------------3-----3--------|| 




|----------|----------------|||------------------|------------------|| 
|----------|----------------|||o-----------------|-----------------o|| 
|----------|----------------|||------------------|------------------|| 
|----------|----------------|||--9---------9-9-9-|-9-9---------8----|| 
|-2--------|-(2)------3-5-3-|||o-7-2-2-2-2-8-8-8-|-8-7-2-2-2-2-6---o|| 
|-0--------|-(0)------1-3-1-|||----0-0-0-0-------|-----0-0-0-0---0--|| 

 
		  

See also:

tabs Aerosmith - Dream On tabs Bon Jovi - It's My Life tabs Van Halen - Pretty Woman tabs Mr. Big - To Be With You tabs Guns N' Roses - Don't Cry tabs Guns N' Roses - Sweet Child o' mine
e-chords

Other versions:

tabs Walls Of Jericho - Fixing Broken Hearts
auto scroll beats size up size down change color hide chords drawings
tab show chords e-chords YouTube Clip e-chords hide all tabs e-chords go to top tab

share