Walk The Moon

home > Walk The Moon

Shiver Shiver Tab

Walk The Moon

Difficulty: nolevelnolevel

by jov%2Dcorrea

tuner correct add songbook print version text version save to e-mail
chordsukulelecavacokeyboardtabbassdrumsharmonicsflute Guitar Pro
chords

Shiver Shiver

  		

   B   C#m Ebm C#m 
e|------4-/-6-\-4------------------------------------------------------------| 
B|-4--/-5-/-7-\-5------------------------------------------------------------| 
G|-4--/-6-/-8-\-6------------------------------------------------------------| 
D|-4--/-6-/-8-\-6------------------------------------------------------------| 
A|-2--/-4-/-6-\-4------------------------------------------------------------| 
E|---------------------------------------------------------------------------| 
Riff/Verse 
(Bass starts riff....) 
e|---------------------------------------------------------------------------| 
B|------------------------------------------------4-4------------------------| 
G|--4/6\(4)-----------4-4-4/6\4---44---44----44---4-4------4-----4-4-4h6~----| 
D|-----------------------------------xx---xx------4-4---4h6--4h6-------------| 
A|---------------------------------------------------------------------------| 
E|---------------------------------------------------------------------------| 

e|---------------------------------------------------------------------------| 
B|--------------------4-4----------------------------------------------------| 
G|--44----44---44-----4-4----4-----4-4-4h6~----------------------------------| 
D|-----66----66---66--4-4-4h6---4h6------------------------------------------| 
A|---------------------------------------------------------------------------| 
E|---------------------------------------------------------------------------| 
Repeat riff as necessary throughout verses. 

Chorus 
e|-7-7-x-7--7-7-x--9------------9-9h11-9-------------------------------------| 
B|-7-7-x-7--7-7-x--9----------9----------------------------------------------| 
G|-8-8-x-8--8-8-x--9--------9------------------------------------------------| 
D|-9-9-x-9--9-9-x-11-----11--------------------------------------------------| 
A|---------------------------------------------------------------------------| 
E|---------------------------------------------------------------------------| 

e|-7-7-x-7--7-7-x--9------------9-9h11/14------------------------------------| 
B|-7-7-x-7--7-7-x--9----------9----------------------------------------------| 
G|-8-8-x-8--8-8-x--9--------9------------------------------------------------| 
D|-9-9-x-9--9-9-x-11-----11--------------------------------------------------| 
A|---------------------------------------------------------------------------| 
E|---------------------------------------------------------------------------| 

Outro: Intro/Verse Riff 




************************************ 

| /   slide up 
| \   slide down 
| h   hammer-on 
| p   pull-off 
| ~   vibrato 
| +   harmonic 
| x   Mute note 
| b   Bend 
| pb  Pre-bend 
| br  Bend release 
| pbr Pre-bend release 
| brb Bend release bend 

************************************ 
	  

Full key step upFull key step up
Half key step upHalf key step up
Half key step downHalf key step down
Full key step downFull key step down
Search Paypal
auto scroll beats size up size down change color hide chords drawings
tab show chords e-chords YouTube Clip e-chords hide all tabs e-chords go to top tab