Voz da Verdade

Projeto no derserto

Voz da Verdade

tabs Beginner beginner

by  CREVG

save to print version add songbook text version e-mail correct tuner
chordsukulelecavacokeyboardtabbassdrumsharmonicaflute Guitar Pro
close

there isn't a video lesson for this song

chords

Projeto no derserto

	  		Introdução (com a 6a corda (E) afinada em D): 
 
e|-------------------------------------------------------------| 
B|-------------------------------------------------------------| 
G|-------------------------------------------------------------| 
D|--------0--0--0--0--0-----0--0--0--0-----0--0--0--0--0--0----| 
A|--3/5--5--5--5--5--5-----3--3--3--3-----5--5--5--5--3--5-----| 
D|-------------------------------------------------------------| 
 
e|-------------------------------------------------------------| 
B|-------------------------------------------------------------| 
G|--------0--0--0--0--0----0--0--0--0----0--0--0--0----0--0--0-| 
D|--3/5--5--5--5--5--5----7--7--7--7----3--3--3--3----5--5--5--| 
A|-------------------------------------------------------------| 
D|-------------------------------------------------------------| 
 
e|-------------------------|-----------------------------------| 
B|---------------------3---|-----------------------------------| 
G|---0--0--0-----------2---|----------7--7--7--7--7---2^0---0--| 
D|-5--3--3----3^0---0--0---|--5/7----5--5--5--5--5--------3----| 
A|----------------0--------|-----------------------------------| 
D|---------------------0---|-----------------------------------| 
 
e|-------------|-----------------------------------------------| 
B|-------------|------6--6/8-8-8-8-8-8/10-10-10-10/13-13-13-13-| 
G|-------------|----5------------------------------------------| 
D|--5--5-------|--7--------------------------------------------| 
A|--5--5-------|-----------------------------------------------| 
D|---------0---|-----------------------------------------------| 
 
e|-------------------------------------------------------------| 
B|-13\12-12-12/10-10-10\8-8/11-11-11-11\10-10-10\8-8-5-3-5b----| 
G|-------------------------------------------------------------| 
D|-------------------------------------------------------------| 
A|-------------------------------------------------------------| 
D|-------------------------------------------------------------| 
 
e|-------------------------------|-----------------------------| 
B|-------------------------------|-----3?(↓)3------------------| 
G|-------------------------------|-----2----2------------------| 
D|----------3------------0-------|-----0----0------------------| 
A|--0-0-3-5--5-----0-0-3---------|-----0----0------------------| 
D|-------------------------3b--0-|--(↑)0----0------------------| 
 
(↑↓)- Alternar, de cima para baixo em seguida de baixo para cima 
 
      Am         F7+         C       G  
e|----------|-0-0-------|-----------|--3-3-|-------------------| 
B|--------1-|-----1-----|-------1-1-|------|-------------------| 
G|------2---|-------2---|-----0-----|------|-------------------| 
D|----2-----|-3-------3-|---2-------|------|-------------------| 
A|--0-------|-----------|-3---------|------|------3b--0--------| 
D|----------|-----------|-----------|--5---|--3^5--------------| 
 
     Am       F7+            C       G   
e|--------|-0-0---------|-------------|--3---------------------| 
B|------1-|-----1-------|-------1-----|------------------------| 
G|----2---|-------2---2-|-----0---0---|------------------------| 
D|--2-----|-3-------3---|---2-------2-|------------------------| 
A|--------|-------------|-3-----------|------------------------| 
D|--------|-------------|-------------|------------------------| 
 
Segunda parte (violão): 
 
e|------------------|----------------|----5--7/8-8-8-7---------| 
B|------4-4^5-4-4-2-|-5^3^2--3-5-----|--5--------------8/10----| 
G|----2-------------|------------3/5-|-------------------------| 
D|--2---------------|----------------|-------------------------| 
A|------------------|----------------|-------------------------| 
E|------------------|----------------|-------------------------| 
 
e|----8--10-10/12-12-12/13-10-|---5^8--------------------------| 
B|--8-------------------------|-------5^8-------------8/10-10--| 
G|----------------------------|-----------5^7---5-----9/10-10--| 
D|----------------------------|---------------7----------------| 
A|----------------------------|--------------------------------| 
E|----------------------------|--------------------------------| 
 
e|---------0------|--------------------------------------------| 
B|-10-10-8-8-5-3--|--------------------------------------------| 
G|-10-10-9-9-5-4--|--------------------------------------------| 
D|----------------|------5-7-7-5-------5-7-7-5-5---------------| 
A|----------------|--5^7-----------5^7-------------------------| 
E|----------------|--------------------------------------------| 
 

		  

Full key step upFull key step up
Half key step upHalf key step up
Half key step downHalf key step down
Full key step downFull key step down
hide glossary

See also:

tabs Heloisa Rosa - Há Um Lugar - Completo tabs Diante do Trono - A Ele a Glória tabs Heloisa Rosa - Jesus é o Caminho tabs Toque no Altar - Deus De Promessa tabs Lázaro - Eu Te Amo Tanto tabs Oficina G3 - Até quando?
e-chords

Other versions:

tabs Voz da Verdade - Projeto no derserto
auto scroll beats size up size down change color hide chords drawings
tab show chords e-chords YouTube Clip e-chords hide all tabs e-chords go to top tab

share