Volbeat

home > Volbeat

A Broken Man And The Dawn Tab

Volbeat

Difficulty: nolevelnolevel

by aman%5Fclaudino

tuner correct add songbook print version text version save to e-mail
chordsukulelecavacokeyboardtabbassdrumsharmonicsflute Guitar Pro
chords

A Broken Man And The Dawn

  		Intro, verse 2x, Chorus, verse 2x, Chorus, Break, Verse, Chorus, Break, Outro. 

Intro 
e|-------------------------------------------------| 
B|-------------------------------------------------| 
G|-6-6-6-6-6-6-6-6--6-6-6-6-6-6-6-6----------------| 
D|-6-6-6-6-6-6-6-6--6-6-6-6-6-6-6-6----------------| 
A|-4-4-4-4-4-4-4-4--4-4-4-4-4-4-4-4----------------| 
D|-------------------------------------------------| 

Verse 
There's a man looking blank to the wall.... 
e|-------------------------------------------------| 
B|-------------------------------------------------| 
G|-6-6-6-6-6-6-6-6---------------------------------| 
D|-6-6-6-6-6-6-6-6--8-8-8-8-8-8-8-8----------------| x3 
A|-4-4-4-4-4-4-4-4--8-8-8-8-8-8-8-8----------------| 
D|------------------8-8-8-8-8-8-8-8----------------| 

e|-------------------------------------------------| 
B|-------------------------------------------------| 
G|-8-8-8-8-8-8-8-8---------------------------------| 
D|-8-8-8-8-8-8-8-8--6-6-6-6-6-6-6-6----------------| 
A|-6-6-6-6-6-6-6-6--6-6-6-6-6-6-6-6----------------| 
D|------------------6-6-6-6-6-6-6-6----------------| 

Chorus 
Oh baby it's so cold in this place... 
e|-------------------------------------------------| 
B|-------------------------------------------------| 
G|-6-(8\-6\)-5-(/6)-3---6-(8\-6\)-5-(/6)-3---------| 
D|-6-(8\-6\)-5-(/6)-3---6-(8\-6\)-5-(/6)-3---------| 
A|-4-(6\-4\)-3-(/4)-1---4-(6\-4\)-3-(/4)-1---------| 
D|-------------------------------------------------| 

e|-------------------------------------------------| 
B|-------------------------------------------------| 
G|-6-(8\-6\)-5-(/6)-3---8-8-8-8-8-8----------------| 
D|-6-(8\-6\)-5-(/6)-3---8-8-8-8-8-8--6-6-6-6-6-6---| 
A|-4-(6\-4\)-3-(/4)-1---6-6-6-6-6-6--6-6-6-6-6-6---| 
D|-----------------------------------6-6-6-6-6-6---| 

Break 
e|-------------------------------------------------|    | 
B|-------------------------------------------------|    | 
G|-------------------------------------------------|    | 
D|-3-2h3-3-2h3-3-0-3-2-3-0-3-2--1-1-1-1--4-4-4-4---|    | 
A|-3-2h3-3-2h3-3-0-3-2-3-0-3-2--1-1-1-1--4-4-4-4---|    | 
D|-3-2h3-3-2h3-3---3-2-3---3-2--1-1-1-1--4-4-4-4---|    | 
                                                        |  
And the four men start to open every case..             | 2x 
e|-------------------------------------------------|    |                
B|-------------------------------------------------|    | 
G|-------------------------------------------------|    | 
D|-3---1-3-4---6-4-3---1-3-4---6-4-3---------------|    | 
A|-3---1-3-4---6-4-3---1-3-4---6-4-3---------------|    | 
D|-3---1-3-4---6-4-3---1-3-4---6-4-3---------------|    | 

e|-------------------------------------------------| 
B|-------------------------------------------------| 
G|-------------------------------------------------| 
D|-3-2h3-3-2h3-3---3-2-3---3-2---------------------| 
A|-3-2h3-3-2h3-3---3-2-3---3-2---------------------| 
D|-3-2h3-3-2h3-3---3-2-3---3-2---------------------| 

Outro 
e|-------------------------------------------------| 
B|-------------------------------------------------| 
G|--6-6--------------------------------------------| 
D|--6-6--------------------------------------------| 
A|--4-4--------------------------------------------| 
D|-------------------------------------------------| 
	  

Search Paypal
auto scroll beats size up size down change color hide chords drawings
tab show chords e-chords YouTube Clip e-chords hide all tabs e-chords go to top tab