Villancicos

Noche De Paz

Villancicos

tabs

by  GUSTSILVA

save to print version add songbook text version e-mail correct tuner
chordsukulelecavacokeyboardtabbassdrumsharmonicaflute Guitar Pro
close

there isn't a video lesson for this song

chords

Noche De Paz

	  		
e||---------------------------|-----------------------| 
B||---------------------------|--3--3--0--0--1--1-----| 
G||--0--2--0-----0--2--0-----|--------------------0--| 
D||-----------2-----------2--|-----------------------| 
A||---------------------------|-----------------------| 
E||---------------------------|-----------------------| 

e||---------------------------------|--------------------------------| 
B||------------1--0-----------------|-----------1--0-----------------| 
G||---2--2--2--------2--0--2--0-----|--2--2--2--------2--0--2--0-----| 
D||------------------------------2--|-----------------------------2--| 
A||---------------------------------|--------------------------------| 
E||---------------------------------|--------------------------------| 

e||------------1--0--------0--|-----------|---------------|| 
B||---3--3--3--------0--1-----|--1--------|---------------|| 
G||---------------------------|-----0-----|--0-----------|| 
D||---------------------------|--------2--|-----3--0-----|| 
A||---------------------------|-----------|-----------3---|| 
E||---------------------------|-----------|---------------||  
		  

See also:

tabs Prototype - The Way It Ends tabs Dragon Ball GT - Sorriso Resplandecente tabs Andy James - After Midnight tabs Maldita Vecindad - Kumbala tabs Megaman - Concrete Jungle tabs Dragon Ball GT - Tema Dragon Ball Gt
e-chords

Other versions:

tabs Villancicos - Noche De Paz
auto scroll beats size up size down change color hide chords drawings
tab show chords e-chords YouTube Clip e-chords hide all tabs e-chords go to top tab

share