Vicente Garcia

Cafecito De Dolores

Vicente Garcia

tabs

by  DEIVCAVALCANTI

save to print version add songbook text version e-mail correct tuner
chordsukulelecavacokeyboardtabbassdrumsharmonicaflute Guitar Pro
close

there isn't a video lesson for this song

chords

Cafecito De Dolores

	  		
Riff 
e|-------------------------| 
B|-3/5--3------------------| 
G|----------2-/4\2--p0h2---| 
D|-3/5------3-/5\3---------| 
A|-------------------------| 
E|-------------------------| 

e|----------------------| 
B|------/5-3------------| 
G|---------------4--2---| 
D|-0h2------------------| 
A|----------------------| 
E|----------------------| 

Intro 
e|-----------------------------------------|---------------------|---------------------| 
B|-1-----1--1-----1--1-1-----1--1-----1--1-|-1-----1--1-----1--1-|-1-----1--0-----0--0-| 
G|----0--------2----2-----0--------2----2--|----0--------2----2--|----0--------0----0--| 
D|---------2------2------------2------2----|---------2------2----|---------2------0----| 
A|-3--------0--------0-3--------0--------0-|-3--------0--------0-|-3-------------------| 
E|-----------------------------------------|---------------------|----------3--------3-|  2x 
   C        Am         C        Am           C        Am           C        G  

Verso 
e|-----------------------------------------|---------------------|---------------------| 
B|-1-----1--1-----1--1-1-----1--1-----1--1-|-1-----1--1-----1--1-|-1-----1--0-----0--0-| 
G|----0--------2----2-----0--------2----2--|----0--------2----2--|----0--------0----0--| 
D|---------2------2------------2------2----|---------2------2----|---------2------0----| 
A|-3--------0--------0-3--------0--------0-|-3--------0--------0-|-3-------------------| 
E|-----------------------------------------|---------------------|----------3--------3-|  3x 
   C        Am         C        Am           C        Am           C        G  

Chorus 
e|-------1--------1-----------3--------3----| 
B|-1--------1-----------0--------0--------0-| 
G|---------0---------0-----0--------0-------| 
D|----3-------------3--------------------0--| 
A|-------3--------3-------------------------| 
E|-1-----------1--------3-------3-----------| 2x 
   Fsus2                G 

e|-----------------------------------------|---------------------|---------------------| 
B|-1-----1--1-----1--1-1-----1--1-----1--1-|-1-----1--1-----1--1-|-1-----1--0-----0--0-| 
G|----0--------2----2-----0--------2----2--|----0--------2----2--|----0--------0----0--| 
D|---------2------2------------2------2----|---------2------2----|---------2------0----| 
A|-3--------0--------0-3--------0--------0-|-3--------0--------0-|-3-------------------| 
E|-----------------------------------------|---------------------|----------3--------3-|  2x 
   C        Am         C        Am           C        Am           C        G  

Intro 
e|-----------------------------------------|---------------------|----------3----------| 
B|-1-----1--1-----1--1-1-----1--1-----1--1-|-1-----1--1-----1--1-|-1-----1--0-----0--0-| 
G|----0--------2----2-----0--------2----2--|----0--------2----2--|----0--------0----0--| 
D|---------2------2------------2------2----|---------2------2----|---------2------0----| 
A|-3--------0--------0-3--------0--------0-|-3--------0--------0-|-3-------------------| 
E|-----------------------------------------|---------------------|----------3--------3-|  1x 
   C        Am         C        Am           C        Am           C        G  

Verso 
e|-----------------------------------------|---------------------|---------------------| 
B|-1-----1--1-----1--1-1-----1--1-----1--1-|-1-----1--1-----1--1-|-1-----1--0-----0--0-| 
G|----0--------2----2-----0--------2----2--|----0--------2----2--|----0--------0----0--| 
D|---------2------2------------2------2----|---------2------2----|---------2------0----| 
A|-3--------0--------0-3--------0--------0-|-3--------0--------0-|-3-------------------| 
E|-----------------------------------------|---------------------|----------3--------3-|  2x 
   C        Am         C        Am           C        Am           C        G  

Chorus 
e|-------1--------1-----------3--------3----| 
B|-1--------1-----------0--------0--------0-| 
G|---------0---------0-----0--------0-------| 
D|----3-------------3--------------------0--| 
A|-------3--------3-------------------------| 
E|-1-----------1--------3-------3-----------| 2x 
   Fsus2                G 

e|-----------------------------------------|---------------------|---------------------| 
B|-1-----1--1-----1--1-1-----1--1-----1--1-|-1-----1--1-----1--1-|-1-----1--0-----0--0-| 
G|----0--------2----2-----0--------2----2--|----0--------2----2--|----0--------0----0--| 
D|---------2------2------------2------2----|---------2------2----|---------2------0----| 
A|-3--------0--------0-3--------0--------0-|-3--------0--------0-|-3-------------------| 
E|-----------------------------------------|---------------------|----------3--------3-|  2x 
   C        Am         C        Am           C        Am           C        G  

Outro/Solo 
e|-----------------------------------------|---------------------|---------------------| 
B|-1-----1--1-----1--1-1-----1--1-----1--1-|-1-----1--1-----1--1-|-1-----1--0-----0--0-| 
G|----0--------2----2-----0--------2----2--|----0--------2----2--|----0--------0----0--| 
D|---------2------2------------2------2----|---------2------2----|---------2------0----| 
A|-3--------0--------0-3--------0--------0-|-3--------0--------0-|-3-------------------| 
E|-----------------------------------------|---------------------|----------3--------3-|  3x 
   C        Am         C        Am           C        Am           C        G  

e|-3-| 
B|-0-| 
G|-0-| 
D|-0-| 
A|-2-| 
E|-3-| 
   G 

************************************ 

| h   Hammer-on 
| p   Pull-off 
| /   Slide up 
| \   Slide down 

************************************ 
		  

Full key step upFull key step up
Half key step upHalf key step up
Half key step downHalf key step down
Full key step downFull key step down
hide glossary

See also:

tabs Chaka Demus & Pliers - Murder She Wrote tabs Vicente Garcia - Amor Pretao tabs Natural dread killaz - Uwierzyc w siebie tabs Vicente Garcia - Cafecito De Dolores
e-chords

Other versions:

tabs Vicente Garcia - Cafecito De Dolores
auto scroll beats size up size down change color hide chords drawings
tab show chords e-chords YouTube Clip e-chords hide all tabs e-chords go to top tab

share