Vicente Garcia

Amor Pretao

Vicente Garcia

tabs

by  BOMBAXXX

save to print version add songbook text version e-mail correct tuner
chordsukulelecavacokeyboardtabbassdrumsharmonicaflute Guitar Pro
close

there isn't a video lesson for this song

chords

Amor Pretao

	  		
Intro 
e|---------------------------------|--------------------| 
B|-----3-------3-------3-------3---|-----3-------3------| 
G|-------0-------0-------0-------0-|-------0-------0----| 
D|---2-------2-------0-------0-----|---2-------2--------| 
A|-3-------2-----------------------|-3-------2----------| 
E|-----------------3-------2-------|-----------------3~-| x2 

verse 1 
e|---------------------------------|---------------------------------| 
B|-----3-------3-------3-------3---|-----3-------3-------3-------3---| 
G|-------0-------0-------0-------0-|-------0-------0-------0-------0-| 
D|---2-------2-------0-------0-----|---2-------2-------0-------0-----| 
A|-3-------2-----------------------|-3-------2-----------------------| 
E|-----------------3-------2-------|-----------------3-------3-------| 

e|---------------------------------|--------------------| 
B|-----3-------3-------3-------3---|-----3-------3------| 
G|-------0-------0-------0-------0-|-------0-------0----| 
D|---2-------2-------0-------0-----|---2-------2--------| 
A|-3-------2-----------------------|-3-------2----------| 
E|-----------------3-------2-------|-----------------3~-| 

PreChorus 1 
e|---------------------------------|--------------------------------| 
B|-----3-------3-------3-------3---|-----3-------3-------3-----3----| 
G|-------0-------0-------0-------0-|-------0-------0-------0--------| 
D|---2-------2-------0-------0-----|---2-------2-------0---------0~-| 
A|-3-------2-----------------------|-3-------2----------------------| 
E|-----------------3-------2-------|-----------------3-------3------| 

e|---------------------------------|-----------------------------------| 
B|-----3-------3-------3-------3---|-----3-------3---------------------| 
G|-------0-------0-------0-------0-|-------0-------0---------0-2-2/4---| 
D|---2-------2-------0-------0-----|---2-------2-----------2---------0-| 
A|-3-------2-----------------------|-3-------2-------------------------| 
E|-----------------3-------2-------|-----------------3-----------------| 

e|---------------------------------|---------------------------------| 
B|-----3-------3-------3-------3---|-----3-------3-------3-------3---| 
G|-------0-------0-------0-------0-|-------0-------0-------0-------0-| 
D|---2-------2-------0-------0-----|---2-------2-------0-------0-----| 
A|-3-------2-----------------------|-3-------2-----------------------| 
E|-----------------3-------2-------|-----------------3-------3-------| 

e|---------------------------------|--------------------| 
B|-----3-------3-------3-------3---|-----3-------3------| 
G|-------0-------0-------0-------0-|-------0-------0----| 
D|---2-------2-------0-------0-----|---2-------2--------| 
A|-3-------2-----------------------|-3-------2----------| 
E|-----------------3-------2-------|-----------------3~-| 

Intro 
e|---------------------------------|--------------------| 
B|-----3-------3-------3-------3---|-----3-------3------| 
G|-------0-------0-------0-------0-|-------0-------0----| 
D|---2-------2-------0-------0-----|---2-------2--------| 
A|-3-------2-----------------------|-3-------2----------| 
E|-----------------3-------2-------|-----------------3~-| x2 

verse 2 
e|---------------------------|---------------------------------| 
B|-3-------3-------3-------3-|-----3-------3-------3-------3---| 
G|-0-------0-------0-------0-|-------0-------0-------0-------0-| 
D|-2-------2-------0-------0-|---2-------2-------0-------0-----| 
A|-3-------2-----------------|-3-------2-----------------------| 
E|-----------------3-------2-|-----------------3-------3-------| 

e|---------------------------------|--------------------| 
B|-----3-------3-------3-------3---|-----3-------3------| 
G|-------0-------0-------0-------0-|-------0-------0----| 
D|---2-------2-------0-------0-----|---2-------2--------| 
A|-3-------2-----------------------|-3-------2----------| 
E|-----------------3-------2-------|-----------------3~-| 

PreChorus 2 
e|---------------------------------|--------------------------------| 
B|-----3-------3-------3-------3---|-----3-------3-------3-----3----| 
G|-------0-------0-------0-------0-|-------0-------0-------0--------| 
D|---2-------2-------0-------0-----|---2-------2-------0---------0~-| 
A|-3-------2-----------------------|-3-------2----------------------| 
E|-----------------3-------2-------|-----------------3-------3------| 

e|---------------------------------|-----------------------------------| 
B|-----3-------3-------3-------3---|-----3-------3---------------------| 
G|-------0-------0-------0-------0-|-------0-------0---------0-2-2/4---| 
D|---2-------2-------0-------0-----|---2-------2---------0-2---------0-| 
A|-3-------2-----------------------|-3-------2-------------------------| 
E|-----------------3-------2-------|-----------------3-----------------| 

e|---------------------------------|---------------------------------| 
B|-----3-------3-------3-------3---|-----3-------3-------3-------3---| 
G|-------0-------0-------0-------0-|-------0-------0-------0-------0-| 
D|---2-------2-------0-------0-----|---2-------2-------0-------0-----| 
A|-3-------2-----------------------|-3-------2-----------------------| 
E|-----------------3-------2-------|-----------------3-------3-------| 

e|---------------------------------|--------------------| 
B|-----3-------3-------3-------3---|-----3-------3------| 
G|-------0-------0-------0-------0-|-------0-------0----| 
D|---2-------2-------0-------0-----|---2-------2--------| 
A|-3-------2-----------------------|-3-------2----------| 
E|-----------------3-------2-------|-----------------3~-| 

Bridge 
e|-------------------|------------------------------------| 
B|-------8-8p7-------|-5-----5-3-----3-1-----1-0-------1~-| 
G|-----7-------7-----|-5---5---4---4-------0-----0---0-2~-| 
D|---9-----------9-0-|-5-5-----5-5-------2---------0---3~-| 
A|-7-----------------|-3---------------0------------------| 
E|-------------------|---------3-----------------------1~-| 

e|-1-------2-------3-------4-------0~-| 
B|---1-------3-------3-------5---5-1~-| 
G|-----2-------2-------4-------4---0~-| 
D|-------3-------0-------5---------2~-| 
A|---------------------------------0~-| 
E|-1-------2-------3-------4----------| 

e|---------------------------------|--------------------| 
B|-----3-------3-------3-------3---|-----3-------3------| 
G|-------0-------0-------0-------0-|-------0-------0----| 
D|---2-------2-------0-------0-----|---2-------2--------| 
A|-3-------2-----------------------|-3-------2----------| 
E|-----------------3-------2-------|-----------------3~-| 

e|--------------------------------------------| 
B|-8-----8-7-----7-5-----5-3-----3-1~------0~-| 
G|-----7-------7-------5-------4---0~------0~-| 
D|---9-------7-------5-------5-----2~------0~-| 
A|-7-------5-------3---------------0~------2~-| 
E|-------------------------3---------------3~-| 

Outro 
e|---------------------------------|---------------------------------| 
B|-----3-------3-------3-------3---|-----3-------3-------3-------3---| 
G|-------0-------0-------0-------0-|-------0-------0-------0-------0-| 
D|---2-------2-------0-------0-----|---2-------2-------0-------0-----| 
A|-3-------2-----------------------|-3-------2-----------------------| 
E|-----------------3-------2-------|-----------------3-------3-------| 

e|---------------------------------|--------------------| 
B|-----3-------3-------3-------3---|-----3-------3------| 
G|-------0-------0-------0-------0-|-------0-------0-4~-| 
D|---2-------2-------0-------0-----|---2-------2--------| 
A|-3-------2-----------------------|-3-------2----------| 
E|-----------------3-------2-------|-----------------3~-| 

********************** 

| ~  Sustain/Hold 
| /  Slide up 
| p  Pull off 

********************** 
		  

See also:

tabs Chaka Demus & Pliers - Murder She Wrote tabs Vicente Garcia - Amor Pretao tabs Natural dread killaz - Uwierzyc w siebie tabs Vicente Garcia - Cafecito De Dolores
e-chords

Other versions:

tabs Vicente Garcia - Amor Pretao
auto scroll beats size up size down change color hide chords drawings
tab show chords e-chords YouTube Clip e-chords hide all tabs e-chords go to top tab

share