Vesa-matti Loiri

Lapin Kesä

Vesa-matti Loiri

tabs

by  VSWORLD

save to print version add songbook text version e-mail correct tuner
chordsukulelecavacokeyboardtabbassdrumsharmonicaflute Guitar Pro
close

there isn't a video lesson for this song

chords

Lapin Kesä

	  		
Tuning: standard 

e|-----------|------------------------------------------------------------------------| 
B|--0-----0--|------------------------------------------------------------------------| 
G|-----4-----|--2-----2--2--------2--2--0---------------------------------------------| 
D|-----------|--4--4--------0--4-----0-----5------------------------------------------| 
A|-----------|--5--------5------------------------------------------------------------| 
E|-----------|------------------------------------------------------------------------| 

e|-----------|----------------------------------|---------------------------------------| 
B|-----------|----------------6--4--3-----3-----|---------------------------------------| 
G|--3--2--3--|--5----5--5-----------4--4--------|---------------------------------------| 
D|-----------|--4--4-------3--3-----6--------6--|---------------------------------------| 
A|-----------|--2-------2-----------------------|---------------------------------------| 
E|-----------|----------------------------------|---------------------------------------| 

e|-----------|--------------------------------------|--| 
B|--3-----3--|--4--------4--3-----------------------|--| 
G|-----6-----|--------2-----5--3--2--3--5-----3-----|--| 
D|-----------|-----2--------------------5--5--------|--| 
A|-----------|--3-----------------------5--------1--|--| 
E|-----------|--------------------------------------|--| 

e|-----------|-----------------------------| 
B|-----------|-----------------------------| 
G|--3--2--3--|--2-----2--2-----3--2--0-----| 
D|-----------|--0--0--------0--------0--0--| 
A|-----------|--0--------------------1--1--| 
E|-----------|--5--------5-----------3--3--| 
		  

See also:

tabs Jani & Jetsetters - Musta Sulhanen tabs Mirel Wagner - No Death tabs Samuli Putro - Elämä On Juhla tabs Vesa-matti Loiri - Lapin Kesä
e-chords

Other versions:

auto scroll beats size up size down change color hide chords drawings
tab show chords e-chords YouTube Clip e-chords hide all tabs e-chords go to top tab

share