Velvet Revolver

She Mine

Velvet Revolver

tabs

by  HEBEALMEIDA

save to print version add songbook text version e-mail correct tuner
chordsukulelecavacokeyboardtabbassdrumsharmonicaflute Guitar Pro
close

there isn't a video lesson for this song

chords

She Mine

Year: 2007 - Album: Libertad

	  		

Then at 0:25 comes the main riff which is played 4 times. 
 
e|-------------------------------------------------------------------------| 
B|-------------------------------------------------------------------------| 
G|-------------------------------------------------------------------------| 
D|-------------------------------------------------------------------------| 
A|-xx7s9-xx7s9-10-9-5s7----------------------------------------------------| 
E|-xx5s7-xx5s7--8-7-5s7----------------------------------------------------| 


Then the verse begins, and this is what I think Slash plays. Repeat 4 times. 

 
e|-------9-7---------------------------------------------------------------| 
B|----------9-10-9---7h9---------------------------------------------------| 
G|------6-6--6--6--6-------------------------------------------------------| 
D|-------------------------------------------------------------------------| 
A|-------------------------------------------------------------------------| 
E|-------------------------------------------------------------------------| 


Repeat till pre-chorus 

Pre-chorus 

 
e|-3-2-----------------3-2-------------------------------------------------| 
B|-3-2-----------------3-2-------------------------------------------------| 
G|-4-3--6--------------4-3--6----------------------------------------------| 
D|-5-4--6--------------5-4--6----------------------------------------------| 
A|-5-4--4--------------5-4--4----------------------------------------------| 
E|-3-2-----------------3-2-------------------------------------------------| 
        ^                   ^ 

       chord is repeated with a couple mutings - listen to the song for the exact strum pattern 

Chorus - rhythm guitar - Repeat 4 times. 

 
e|-------------------------------------------------------------------------| 
B|-------------------------------------------------------------------------| 
G|-------------------------------------------------------------------------| 
D|-------------------------------------------------------------------------| 
A|-xx7s9-xx7s9-10-9-5s7----------------------------------------------------| 
E|-xx5s7-xx5s7--8-7-5s7----------------------------------------------------| 



 
		  

See also:

tabs James Blunt - Cry tabs Iron Butterfly - IronButterfly-in A Gadda Da Vida tabs Stone Sour - Through glass (ver. 2) tabs Candlebox - Far behind tabs Mudvayne - World so cold tabs James Blunt - Wisemen
e-chords

Other versions:

tabs Velvet Revolver - She Mine
auto scroll beats size up size down change color hide chords drawings
tab show chords e-chords YouTube Clip e-chords hide all tabs e-chords go to top tab

share