Velvet Revolver

Money

Velvet Revolver

tabs

by  PAZIN

save to print version add songbook text version e-mail correct tuner
chordsukulelecavacokeyboardtabbassdrumsharmonicaflute Guitar Pro
close

there isn't a video lesson for this song

chords

Money

	  		A Lick 
|-----------------| 
|-----------------| 
|-----------------| 
|---------------0-| 
|-2-2-0-2---0-2---| 
|---------2-------| 
  x o o x x x x x 
 
 
 
B Lick 
|-----------------| 
|-----------------| 
|---------------0-| 
|-2-2-0-2---0-2---| 
|---------2-------| 
|-----------------| 
  x x o x x x x x 
 
C Lick 
|---------------------------| 
|---------------------------| 
|---------------------------| 
|-4-------4-3-2-----------0-| 
|-----0-2-------2-----0-2---| 
|---2-------------0-3-------| 
  x x x x x x o o x x x x x 
  x 
  x 
 
Intro: 
A Lick (8x) 
 
Verse 1: 
A Lick (8x) 
 
Chorus: 
C Lick (1x) 
A Lick (2x) 
 
Verse 2: 
A Lick (4x) 
B Lick (2x) 
A LIck (2x) 

		  

Full key step upFull key step up
Half key step upHalf key step up
Half key step downHalf key step down
Full key step downFull key step down
hide glossary

See also:

tabs Pixies - Gigantic tabs Badly Drawn Boy - Something To Talk About tabs Interpol - Slow Hands tabs Black Crowes - Jealous Again tabs Gary Moore - Parisienne Walkways tabs Eddie Vedder - Long Nights
e-chords

Other versions:

tabs Extreme - Money tabs Ghoti Hook - Money tabs Pink Floyd - Money tabs Velvet Revolver - Money tabs Serj Tankian - Money tabs David Guetta - Money
auto scroll beats size up size down change color hide chords drawings
tab show chords e-chords YouTube Clip e-chords hide all tabs e-chords go to top tab

share