Velvet Revolver

Let It Roll

Velvet Revolver

tabs

by  HEBEALMEIDA

save to print version add songbook text version e-mail correct tuner
chordsukulelecavacokeyboardtabbassdrumsharmonicaflute Guitar Pro
close

there isn't a video lesson for this song

chords

Let It Roll

Year: 2007 - Album: Libertad

	  		


Tuning: E A D G B e

 Intro                  Intro pt.2 
 4/4 
 
  Gtr I 
|------------------------------------|| 
|-----------------------------------o|| 
|------------------------------------|| 
|------------------------------------|| X4 
|---------------------------------5-o|| 
|0-12-0-11-0-10-10------5-0-4-0-3----|| 


| 
|                                      Gtr II 
 
|---------------------------------||-||------------------| 
|--------------------------------o||-||o-----------------| 
|---------------------------------||-||--9-8-7-7-------7-| 
|---------------------------------||-||--9-8-7-7-7-6-5-7-| X2 
|--------------------------------o||-||o-7-6-5-5-7-6-5-5-| 
|---------------------------------||-||----------5-4-3---| 



 
 Verse (listen to song for rhythm) 
|-----------------|-------------| 
|-----------------|-------------| 
|-----------------|-------------| 
|-2---------------|-------------| 
|-2---------------|-------------| 
|-0---------------|-------------| 


 
|-----------------|-------------| 
|-----------------|-----------3-| 
|-----------------|-----------2-| 
|-2-2-2-2-2-2-2-2-|-2-2-2-2---0-| 
|-2-2-2-2-2-2-2-2-|-2-2-2-2-0---| 
|-0-0-0-0-0-0-0-0-|-0-0-0-0-----| 



 
     Pre-Chorus I 
|--||-------------------------------| 
|-o||-------------------------------| 
|--||-5-5-5-5-5---7-7-7-7-7-7---9-9-| 
|--||-5-5-5-5-5-5-7-7-7-7-7-7-7-9-9-| 
|-o||-3-3-3-3-3-5-5-5-5-5-5-5-7-7-7-| 
|--||-----------3-------------5-----| 



   Chorus I 
 
                                        
||------------------|------------------| 
||o-----------------|-----------------o| 
||--9-8-7-7-------7-|-9-8-7-7-------7--| 
||--9-8-7-7-7-6-5-7-|-9-8-7-7-7-6-5-7--| X4 
||o-7-6-5-5-7-6-5-5-|-7-6-5-5-7-6-5-5-o| 
||----------5-4-3---|---------5-4-3----| 



 
 Verse II               Verse II pt.2  
|---------|-----------||--------------------------------||--| 
|---------|--------3--||o---------------------------3--o||--| 
|---------|--------2--||----------------------------2---||--| 
|---------|--------0--||--2-2-2-2-2-2-2-2-2-2-2-2---0---||--| 
|---------|------0----||o-2-2-2-2-2-2-2-2-2-2-2-2-0----o||--| 
|---------|-----------||--0-0-0-0-0-0-0-0-0-0-0-0-------||--| 



 
   Pre-Chorus II 
||------------------------------|-----------------|------------------||-| 
||o-----------------------------|-----------------|-----------------o||-| 
||--5-5-5-5-5-5---7-7-7-7-7-7---|-9-8-7-7-------7-|-9-8-7-7-------7--||-| 
||--5-5-5-5-5-5-5-7-7-7-7-7-7-7-|-9-8-7-7-7-6-5-7-|-9-8-7-7-7-6-5-7--||-| 
||o-3-3-3-3-3-3-5-5-5-5-5-5-5-7-|-7-6-5-5-7-6-5-5-|-7-6-5-5-7-6-5-5-o||-| 
||--------------3-------------5-|---------5-4-3---|---------5-4-3----||-| 



 
 Chorus II                           Pre-Solo 
|-----------------|-----------------|---------------------------------| 
|-----------------|-----------------|---------------------------------| 
|-9-8-7-7-------7-|-9-8-7-7-------7-|-3-3-3-3-3-3---5-5-5-5-5-5---7-7-| 
|-9-8-7-7-7-6-5-7-|-9-8-7-7-7-6-5-7-|-3-3-3-3-3-3-3-5-5-5-5-5-5-5-7-7-| 
|-7-6-5-5-7-6-5-5-|-7-6-5-5-7-6-5-5-|-1-1-1-1-1-1-3-3-3-3-3-3-3-5-5-5-| 
|---------5-4-3---|---------5-4-3---|-------------1-------------3-----| 



|----------------------------| 
|----------------------------| 
|--7--7-6-6-5-5-4-4-3-2------| 
|--7--7-6-6-5-5-4-4-3-2-2----| 
|--5--5-4-4-3-3-2-2-1-0-2----| 
|-----------------------0----| 
 
| 
|-10-10-9-9-8-8-7-7-6-5-0----| 
|----------------------------| 
|----------------------------| 
|----------------------------| 
|----------------------------| 
|----------------------------| 

 
		  

See also:

tabs James Blunt - Cry tabs Iron Butterfly - IronButterfly-in A Gadda Da Vida tabs Stone Sour - Through glass (ver. 2) tabs Candlebox - Far behind tabs Mudvayne - World so cold tabs James Blunt - Wisemen
e-chords

Other versions:

tabs Secondhand Serenade - Let it roll tabs Velvet Revolver - Let It Roll
auto scroll beats size up size down change color hide chords drawings
tab show chords e-chords YouTube Clip e-chords hide all tabs e-chords go to top tab

share