Velvet Revolver

Fall to pieces

Velvet Revolver

tabs Advanced advanced

by  VMEHMERI

save to print version add songbook text version e-mail correct tuner
chordsukulelecavacokeyboardtabbassdrumsharmonicaflute Guitar Pro
close

there isn't a video lesson for this song

chords

Fall to pieces

Year: 2004 - Album: Contraband

	  		 
Riff: 
 
                                                                     ^^^^                                    ^^^^ 
15--14-----------------------14(b1/2)------14--| 
--------15-------------------------------------| 
-------------14-12\11--------------------------| 
--------------------------12-------------------| 
-----------------------------------------------| 
-----------------------------------------------| 
 
---------------------------13--12--------------------------------------| 
---15-------------------------------------13---------------------------| 
-------14-12/11---------------------------------12-10/9----------------| 
----------------------12-----------------------------------------------| 
------------------------------------------------------------10---------| 
-----------------------------------------------------------------------| 
 
                    
-------------------------------| 
-------------------------------| 
-------------------------------| 
--------------9--10/12---------| 
--------10---------------------| 
-------------------------------| 
		  

See also:

tabs Wheatus - Teenage Dirtbag tabs James Blunt - Wisemen tabs Candlebox - Far behind tabs Slash Snakepit - Godfather Theme tabs Hoobastank - Disappear tabs Iron Butterfly - IronButterfly-in A Gadda Da Vida
e-chords

Other versions:

tabs Velvet Revolver - Fall to pieces tabs Velvet Revolver - Fall to Pieces (ver. 3)
auto scroll beats size up size down change color hide chords drawings
tab show chords e-chords YouTube Clip e-chords hide all tabs e-chords go to top tab

share