Velvet Revolver

Dirty Little Thing

Velvet Revolver

tabs Expert expert

save to print version add songbook text version e-mail correct tuner
chordsukulelecavacokeyboardtabbassdrumsharmonicaflute Guitar Pro
close

there isn't a video lesson for this song

chords

Dirty Little Thing

Year: 2004 - Album: Contraband

	  		 
Gtr I (E A D G B E) - 'Slash' 
 
Gtr 2 (E A D G B E) - 'Dave Kushner' 
 
  
 
::Intro, 
  
 
|--------------------------| 
|--------------------------| 
|--------------------------| 
|-2-2-2-2-2-2-2-2-2-2-2----| 
|--------------------------| 
|--------------------------| 
  
 
|------------------------------------| 
|------------------------------------| 
|------------------------------------| 
|------------------------------------| 
|----5-----7-----8-----7--5s=7s=5----| 
|-0--3--0--5--0--6--0--5--3S=5s=3----| 
  
|-----------------|--------------------| 
|-----------------|--------------------| 
|-----------------|--------------------| 
|-----------------|--------------------| 
|---5---7---8---7-|-5s7s5---5--5--5----| 
|-0-3-0-5-0-6-0-5-|-3S5s3---3--3--3----| 
  
"Can't stop thinkin musta been trippin this evening 
My mind is racing demons and all of my feelings are numb" 
  
::Pre - Chorus -  
 
|--------------------------------------------| 
|-----------------------------6--------------| 
|-5b6.5===4S==2----7b8.5======7----5b6.5=====| 
|--------------------------------------------| 
|--------------------------------------------| 
|--------------------------------------------| 
  
|-----------------|--------------| 
|-----------------|--------------| 
|-----------------|--------------| 
|-----------------|--------------| 
|-7-7-7-7-7-7-x-7-|-7-7-7-7-7----| 
|-5-5-5-5-5-5-x-5-|-5-5-5-5-5----| 
  
"Yeah and when I roll with my head in the wind 
And I feel like the king of the" 
  
::Verse 2 
 
|------------------------------------| 
|------------------------------------| 
|------------------------------------| 
|------------------------------------| 
|----5-----7-----8-----7--5s=7s=5----| 
|-0--3--0--5--0--6--0--5--3S=5s=3----| 
  
|-----------------|--------------------| 
|-----------------|--------------------| 
|-----------------|--------------------| 
|-----------------|--------------------| 
|---5---7---8---7-|-5s7s5---5--5--5----| 
|-0-3-0-5-0-6-0-5-|-3S5s3---3--3--3----| 
  
"Dead men wishin they had gotten together with you girl 
But you're a dirty little liar with a message of obsession to come" 
  
  
::Pre-Chorus   
|---------------------| 
|---------------------| 
|---------------------| 
|-5-5-5-5-------------| 
|-3-3-3-3--7-7-7-7----| 
|----------5-5-5-5----| 
  
"You got your head in the clouds and your world's upside down" 
  
::Chorus -  
|-----------------------------------------------| 
|-----------------------------------------------| 
|-----------------------------------------------| 
|--------5----------7--------5---4--------------| 
|-2------3-----2----5----2---3---2-----7-----5--| 
|-0------------0---------0----------0--5--0--3--| 
  
"You got your head in the clouds and your world's upside down 
Get away from the life you're living 
Get away from the man that's stealing your life 
Get away from the drugs you're taking 
Get away from the film of sex in your life" 
  
::Intro  
 
|------------------------------------| 
|------------------------------------| 
|------------------------------------| 
|------------------------------------| 
|----5-----7-----8-----7--5s=7s=5----| 
|-0--3--0--5--0--6--0--5--3S=5s=3----| 
  
|-----------------|--------------------| 
|-----------------|--------------------| 
|-----------------|--------------------| 
|-----------------|--------------------| 
|---5---7---8---7-|-5s7s5---5--5--5----| 
|-0-3-0-5-0-6-0-5-|-3S5s3---3--3--3----| 
  
::Verse 3 -  
 
|------------------------------------| 
|------------------------------------| 
|------------------------------------| 
|------------------------------------| 
|----5-----7-----8-----7--5s=7s=5----| 
|-0--3--0--5--0--6--0--5--3S=5s=3----| 
  
|-----------------|--------------------| 
|-----------------|--------------------| 
|-----------------|--------------------| 
|-----------------|--------------------| 
|---5---7---8---7-|-5s7s5---5--5--5----| 
|-0-3-0-5-0-6-0-5-|-3S5s3---3--3--3----| 
  
::Bridge  
 
  
|--------------------------------------------| 
|-----------------------------6--------------| 
|-5b6.5===4S==2----7b8.5======7----5b6.5=====| 
|--------------------------------------------| 
|--------------------------------------------| 
|--------------------------------------------| 
  
|-----------------|--------------| 
|-----------------|--------------| 
|-----------------|--------------| 
|-----------------|--------------| 
|-7-7-7-7-7-7-x-7-|-7-7-7-7-7----| 
|-5-5-5-5-5-5-x-5-|-5-5-5-5-5----| 
  
"Yeah and when I roll with my head in the wind 
And I feel like the king of the" 
  
::Verse 2 intro riff:: 
 
|------------------------------------| 
|------------------------------------| 
|------------------------------------| 
|------------------------------------| 
|----5-----7-----8-----7--5s=7s=5----| 
|-0--3--0--5--0--6--0--5--3S=5s=3----| 
  
|-----------------|--------------------| 
|-----------------|--------------------| 
|-----------------|--------------------| 
|-----------------|--------------------| 
|---5---7---8---7-|-5s7s5---5--5--5----| 
|-0-3-0-5-0-6-0-5-|-3S5s3---3--3--3----| 
  
"Dead men wishin they had gotten together with you girl 
But you're a dirty little liar with a message of obsession to come" 
  
::Pre-Chorus -  
---------------------| 
|---------------------| 
|---------------------| 
|-5-5-5-5-------------| 
|-3-3-3-3--7-7-7-7----| 
|----------5-5-5-5----| 
  
"You got your head in the clouds and your world's upside down" 
  
::Chorus   
|-----------------------------------------------| 
|-----------------------------------------------| 
|-----------------------------------------------| 
|--------5----------7--------5---4--------------| 
|-2------3-----2----5----2---3---2-----7-----5--| 
|-0------------0---------0----------0--5--0--3--| 
  
  
"Get away from the life you're living 
Get away from the man that's stealing your life 
Get away from the drugs you're taking 
Get away from the film of sex in your life" 
  
::SOLO - by Slash,   
  
|---------------------------------------------2-------2-------2--------| 
|-----------------------------------------------5-2-----5-2-----5-2----| 
|---------------------------------------0-2-5-------4-------4-------4--| 
|-------------------------0-2-3-0-0-2-3--------------------------------| 
|---------0-2-3-5-0-2-3-5----------------------------------------------| 
|-0-2-3-5--------------------------------------------------------------| 
  
|-2---------------------2-----2-------2-------5-------5-------7---------| 
|---5-2---5-3-5---4-2-----5-2---5-2-----5-2-----8-5-----8-5-----10-7----| 
|-------4-------4-----5-------------4-------4-------7-------7--------9--| 
|-----------------------------------------------------------------------| 
|-----------------------------------------------------------------------| 
|-----------------------------------------------------------------------| 
  
  
~~ 
  
|-9----------12-13b15--11-9---------9------------------------------------------------| 
|---12-9--------------------13-9-13---13-9--------------13-13p-10----13p-13-10-------| 
|--------11--------------------------------11-9-10----------------12-----------12----| 
|--------------------------------------------------12-9------------------------------| 
|------------------------------------------------------------------------------------| 
|------------------------------------------------------------------------------------| 
  
|-15-13-12-13-11-10-10-8-7-8-6-5-----------------------------------------------| 
|--------------------------------8-6-5-6-4-3-----------------------------------| 
|--------------------------------------------9-7-6-8-6-5-----------------------| 
|--------------------------------------------------------8-6-5-----------------| 
|--------------------------------------------------------------9-7-6-7-5-4-7-5-| 
|------------------------------------------------------------------------------| 
  
|----------------| 
|----------------| 
|----------------| 
|----------------| 
|---4------------| 
|-5---5-4-1-0----| 
  
  
~~~~~ 
  
|-------12---12---12--15-------15---------------------------------------------| 
|-------12---12---12--15-------15-------12-15----------12-15---------17b18----| 
|-8b9.5----8----8--------16-14----14-12-12-15-12-15-12-12-15-12-15------------| 
|------------------------------------------------15-12-------12-15------------| 
|-----------------------------------------------------------------------------| 
|-----------------------------------------------------------------------------| 
 
::Pre-Chorus  
 
|---------------------| 
|---------------------| 
|---------------------| 
|-5-5-5-5-------------| 
|-3-3-3-3--7-7-7-7----| 
|----------5-5-5-5----| 
  
"You got your head in the clouds and your world's upside down" 
  
::Chorus -  
 
|-----------------------------------------------| 
|-----------------------------------------------| 
|-----------------------------------------------| 
|--------5----------7--------5---4--------------| 
|-2------3-----2----5----2---3---2-----7-----5--| 
|-0------------0---------0----------0--5--0--3--| 
  
  
"Get away from the life you're living 
Get away from the man that's stealing your life 
Get away from the drugs you're taking 
Get away from the film of sex in your life" 
  
fim:: 
~~ ~~ 
  
|-------------------------------| 
|-17-----17---19---17-----12----| 
|-20-----20---22---22-----15----| 
|-------------------------------| 
|-------------------------------| 
|-------------------------------| 
  
|-----------------------------------------------| 
|-----------------------------------------------| 
|-----------------------------------------------| 
|--------5----------7--------5---4--------------| 
|-2------3-----2----5----2---3---2-----7-----5--| 
|-0------------0---------0----------0--5--0--3--| 
  
_______________________________________________________ 
Contribuição: Francisco Augusto Jarschel([email protected]) 

		  

Full key step upFull key step up
Half key step upHalf key step up
Half key step downHalf key step down
Full key step downFull key step down
hide glossary

See also:

tabs James Blunt - Cry tabs Iron Butterfly - IronButterfly-in A Gadda Da Vida tabs Stone Sour - Through glass (ver. 2) tabs Candlebox - Far behind tabs Mudvayne - World so cold tabs James Blunt - Wisemen
e-chords

Other versions:

tabs Velvet Revolver - Dirty Little Thing
auto scroll beats size up size down change color hide chords drawings
tab show chords e-chords YouTube Clip e-chords hide all tabs e-chords go to top tab

share