Velvet Revolver

Come on Come In

Velvet Revolver

tabs Beginner beginner

by  PAZIN

save to print version add songbook text version e-mail correct tuner
chordsukulelecavacokeyboardtabbassdrumsharmonicaflute Guitar Pro
close

there isn't a video lesson for this song

chords

Come on Come In

	  		Guitar 2: 
    w/wah   
|-------------------------------------------------| 
|-------------------------------------------------| 
|-------------------------------------------------| 
|----15-15p14p12----------------------------------| 
|----------------14b15~~--------------------------| 
|-------------------------------------------------| 
 
Guitar 2: 
    w/wah 
|---------------------------| 
|---------------------------| 
|---------------------------| (Play 4x)  
|--------7---9b10r9---------| 
|---------------------------| 
|---0--0---0----------------| 
 
 
 Guitar 1: 
|-------------------------------------------| 
|-------------------------------------------| 
|-------------------------------------------|  
|--0-0--7-0--6-5--0--10--0--5--0--3-4-5-----| (Play 4x) 
|--0-0--7-0--6-5--0--10--0--5--0--3-4-5-----| 
|--0-0--7-0--6-5--0--10--0--5--0--3-4-5-----| 
 
 Guitar 2: 
|--------------------------------------------| 
|--------------------------------------------| 
|--5h7p5h7p5h7p5h7p5h7p5h7--7b10~------------| 
|--------------------------------------------| 
|--------------------------------------------| 
|--------------------------------------------| 
 
 
 Guitar 1: 
P.M..............................................		 
|---------------------------------------------------| 
|---------------------------------------------------| 
|-----------------------------------5--5-5--5-5-5---| (Play 4x) 
|--0--0-0--0-0--0--0-0-0-0--1--1-1--5--5-5--5-5-5---| 
|--0--0-0--0-0--0--0-0-0-0--1--1-1--3--3-3--3-3-3---| 
|--0--0-0--0-0--0--0-0-0-0--1--1-1------------------| 
 
 
 Guitar 2: 
|-------------------------------------------------------| 
|-------------------------------------------------------| 
|--7--7-7--7-7--7-10-10----8---8-8--5--5-5--5-5-5-------| (Play 2x) 
|--7--7-7--7-7--7-10-10----8---8-8--5--5-5--5-5-5-------| 
|--5--5-5--5-5--5--8--8----6---6-6--3--3-3--3-3-5-------| 
|-------------------------------------------------------| 
 
 
Guitar 2:  
|------------------------------------------| 
|-------8b10r8-----------------------------| 
|---5-7--------7---5-7---------------------| (play 2x) 
|----------------------5b7r5---------------| 
|-----------------------------5------------| 
|------------------------------------------| 
 
 
|----------------------------------------------------| 
|----------------------------------------------------| 
|-----------------------------8-8--8-8---------------| (Play 2x) 
|--5--4--3--2--1--1-1--1-1--1-8-8--8-8---------------| 
|--5--4--3--2--1--1-1--1-1--1-6-6--6-6---------------| 
|--5--4--3--2--1--1-1--1-1--1------------------------| 
 
 
|--------------------------------------------------| 
|--------------------------------------------------| 
|--------------------------------------------------|  
|--0-0--7-0--6-5--0--10--0--5--0--3-4-5------------| (Play 4x) 
|--0-0--7-0--6-5--0--10--0--5--0--3-4-5------------| 
|--0-0--7-0--6-5--0--10--0--5--0--3-4-5------------| 
 
 Guitar 1: 
P.M..............................................		 
|---------------------------------------------------| 
|---------------------------------------------------| 
|-----------------------------------5--5-5--5-5-5---| (Play 4x) 
|--0--0-0--0-0--0--0-0-0-0--1--1-1--5--5-5--5-5-5---| 
|--0--0-0--0-0--0--0-0-0-0--1--1-1--3--3-3--3-3-3---| 
|--0--0-0--0-0--0--0-0-0-0--1--1-1------------------| 
 
 
 Guitar 2: 
|--------------------------------------------------| 
|--------------------------------------------------| 
|--7--7-7--7-7--7-10-10----8---8-8--5--5-5--5-5-5--| (Play 2x) 
|--7--7-7--7-7--7-10-10----8---8-8--5--5-5--5-5-5--| 
|--5--5-5--5-5--5--8--8----6---6-6--3--3-3--3-3-5--| 
|--------------------------------------------------| 
 
 
Guitar 2:  
|------------------------------------------| 
|-------8b10r8-----------------------------| 
|---5-7--------7---5-7---------------------| (play 2x) 
|----------------------5b7r5---------------| 
|-----------------------------5------------| 
|------------------------------------------| 
 
 
|----------------------------------------------| 
|----------------------------------------------| 
|-----------------------------8-8--8-8---------| (Play 2x) 
|--5--4--3--2--1--1-1--1-1--1-8-8--8-8---------| 
|--5--4--3--2--1--1-1--1-1--1-6-6--6-6---------| 
|--5--4--3--2--1--1-1--1-1--1------------------| 
 
 
 
|--------------------------------------------| 
|--------------------------------------------| 
|--------------------------------------------|  
|--0-0--7-0--6-5--0--10--0--5--0--3-4-5------| (Play 4x) 
|--0-0--7-0--6-5--0--10--0--5--0--3-4-5------| 
|--0-0--7-0--6-5--0--10--0--5--0--3-4-5------| 
 
Guitar 1: 
|------------------------------------------------------------| 
|------------------------------------------------------------| 
|-7-7-7--8--8-8--8-8--8--8-8--8-8-7-5--5-5--5-5--5--5-5--5-5-|  
|-7-7-7--8--8-8--8-8--8--8-8--8-8-7-5--5-5--5-5--5--5-5--5-5-|  
|-5-5-5--6--6-6--6-6--6--6-6--6-6-5-3--3-3--3-3--3--3-3--3-3-| 
|------------------------------------------------------------| 
 
Guitar 1: 
|-------------------------------------------------------------| 
|-------------------------------------------------------------| 
|10-10-10--8--8-8--8-8--8--8-8--8-8--5--5-5--5-5--3--3-3--3-3-|  
|10-10-10--8--8-8--8-8--8--8-8--8-8--5--5-5--5-5--3--3-3--3-3-|  
|-8--8--8--6--6-6--6-6--6--6-6--6-6--3--3-3--3-3--1--1-1--1-1-| 
|-------------------------------------------------------------| 
 
Guitar 1: 
|---------------------------------------------| 
|---------------------------------------------| 
|10--10-10--10-10---8-8--8-8--8-8-------------|  
|10--10-10--10-10---8-8--8-8--8-8-------------|  
|-8-- 8--8---8--8---6-6--6-6--6-6-------------| 
|---------------------------------------------| 
 
Solo: 
 
Guitar 1: 
|--------------------------------------------------| 
|--------------------------------------------------| 
|--------------------------------------------------|  
|--0-0--7-0--6-5--0--10--0--5--0--3-4-5------------| (Play 4x) 
|--0-0--7-0--6-5--0--10--0--5--0--3-4-5------------| 
|--0-0--7-0--6-5--0--10--0--5--0--3-4-5------------| 
 
 
Guitar 2: 
 w/wah 
|--------------------------------------------------| 
|---10-~~------------------------------------------| 
|---12b14~~---10-12-10--10-------------------------|  
|--------------------------12-10-10-10h12----------|  
|--------------------------------------------------| 
|--------------------------------------------------| 
 
Guitar 2: 
 w/wah 
|--17b19~---17b19~--17b19--15-17-15-17-15h17p15p13/12/15--15b17r15-----| 
|----------------------------------------------------------------------| 
|----------------------------------------------------------------------|  
|----------------------------------------------------------------------|  
|----------------------------------------------------------------------| 
|----------------------------------------------------------------------| 
 
Guitar 2: 
 w/wah 
|--------13-12h13p12---12------------13------------| 
|-13h15--------------13--13-15-13h15----15/--------| 
|---------------------------------------14/--------|  
|--------------------------------------------------|  
|--------------------------------------------------| 
|--------------------------------------------------| 
 
Guitar 1: 
|----------------------------------------------------| 
|----------------------------------------------------| 
|-----------------------------8-8--8-8---------------| (Play 2x) 
|--5--4--3--2--1--1-1--1-1--1-8-8--8-8---------------| 
|--5--4--3--2--1--1-1--1-1--1-6-6--6-6---------------| 
|--5--4--3--2--1--1-1--1-1--1------------------------| 
 
 
Guitar 2: 
 w/wah 
|--------------------------------------6---------6----| 
|-8-----7-----6-----5----4~-----4---4--4--4---4--4----| 
|10b12--9b11--8b10--7b9--6b8~---6b8(8)----6b8(8)------|  
|-----------------------------------------------------|  
|-----------------------------------------------------| 
|-----------------------------------------------------| 
 
Guitar 2: 
 w/wah 
|----------6---------6---| 
|---4---4--4--4---4--4---| 
|---6b8(8)----6b8(8)-----|  
|------------------------|  
|------------------------| 
|------------------------| 
 
Guitar 2: 
 w/wah 
|--15-----14----13----12~-----11----11--11--11----11--11--| 
|--18b20--17b19-16b18-15b17~--14b16(16)(16)-14b16(16)(16)-| 
|---------------------------------------------------------|  
|---------------------------------------------------------|  
|---------------------------------------------------------| 
|---------------------------------------------------------| 
 
Guitar 2: 
 w/wah 
|-11----11--11--11----11--11---| 
|-14b16(16)(16)-14b16(16)(16)--| 
|------------------------------|  
|------------------------------|  
|------------------------------| 
|------------------------------| 
 
Guitar 2: 
 w/wah 
|-11~-------------17~---22~---------------------| 
|-14b16~------19~-------------------------------| 
|-----------------------------------------------|  
|-----------------------------------------------|  
|-----------------------------------------------| 
|-----------------------------------------------| 
 
Guitar 1: 
|---------------------------------------| 
|---------------------------------------| 
|---------------------------------------|  
|--0-0--7-0--6-5--0--10--0--5--0--3-4-5-| (Play 8x) 
|--0-0--7-0--6-5--0--10--0--5--0--3-4-5-| 
|--0-0--7-0--6-5--0--10--0--5--0--3-4-5-| 
 
Guitar 1: 
|---------------------------------------| 
|---------------------------------------| 
|---------------------------------------|  
|--0-0--7-0--6-5--0--10--0--5--0--3-4-5-| (Play 4x) 
|--0-0--7-0--6-5--0--10--0--5--0--3-4-5-| 
|--0-0--7-0--6-5--0--10--0--5--0--3-4-5-| 
 
Guitar 2: 
|----------------------------------------| 
|----------------------------------------| 
|----------------------------------------|  
|--0-0--7-0--6-5--0--10--0--5--0--3-4-5--|  
|----------------------------------------| 
|----------------------------------------| 
 
Guitar 2: 
|--------------------------------| 
|-5b6----------------------------| 
|-----7p5---7-5---5~-------5-----|  
|---------7-----7----5p3-----3---|  
|------------------------5-------| 
|--------------------------------| 
 
Guitar 2: 
|-------------------------------------------| 
|-8b10--8b10r8p6--8b10~-----8b10r8p6--------| 
|------------------------------------7------|  
|-------------------------------------------|  
|-------------------------------------------| 
|-------------------------------------------| 
 
Guitar 2: 
|-7b8-7h8p5---5-----------------------------| 
|-----------8---8-6-5-6h7p6p5--5b6----------| 
|-----------------------------------7-7/----|  
|-------------------------------------------|  
|-------------------------------------------| 
|-------------------------------------------| 

		  

See also:

tabs James Blunt - Cry tabs Iron Butterfly - IronButterfly-in A Gadda Da Vida tabs Stone Sour - Through glass (ver. 2) tabs Candlebox - Far behind tabs Mudvayne - World so cold tabs James Blunt - Wisemen
e-chords

Other versions:

tabs Velvet Revolver - Come on Come In
auto scroll beats size up size down change color hide chords drawings
tab show chords e-chords YouTube Clip e-chords hide all tabs e-chords go to top tab

share