Velvet Revolver

American Man

Velvet Revolver

tabs

by  HEBEALMEIDA

save to print version add songbook text version e-mail correct tuner
chordsukulelecavacokeyboardtabbassdrumsharmonicaflute Guitar Pro
close

there isn't a video lesson for this song

chords

American Man

Year: 2007 - Album: Libertad

	  		Intro Chorus: 
 
   E    C      G      D 
E|--------8-8----------10--10----------------------| 
B|--9-9---8-8---12-12--10--10----------------------| 
G|--9-9---9-9---12-12--11--11----------------------| 
D|--9-9--10-10--12-12--12--12----------------------| 
A|--7-7--10-10--10-10--12--12----------------------| 
E|--------8--8---------10--10----------------------| 


Verse: 
 
    E 
E|-------------------------------------------------| 
B|-------------------------------------------------| 
G|-------------------------------------------------| 
D|--2-x--x--2---2-x--x--2--------------------------| 
A|--2-x--x--2---2-x--x--2--------------------------| 
E|--0-x--x--0---0-x--x--0--------------------------| 



Interlude: 

 
E|-------------------------------------------------| 
B|-------------------------------------------------| 
G|---11~~~~----------------------------------------| 
D|-------------------------------------------------| 
A|--------6h-7h-9-----10~~--9--7~~-9~~-7h-9p-7//---| 
E|-------------------7-----------------------------| 


 
E|-------------------------------------------------| 
B|---------------------------------7h-10-9h-10-12~-| 
G|-----------------------------7h-9----------------| 
D|-------------------------7h-9--------------------| 
A|-6BR---9~10^BR-10-9h10---------------------------| 
E|-----7-------------------------------------------| 


Chorus: 

 
E|--------8-8----------10--10----------------------| 
B|--9-9---8-8---12-12--10--10----------------------| 
G|--9-9---9-9---12-12--11--11----------------------| 
D|--9-9--10-10--12-12--12--12----------------------| 
A|--7-7--10-10--10-10--12--12----------------------| 
E|--------8--8---------10--10----------------------| 


Bridge: Play Through Out 

 
E|-------------------------------------------------| 
B|---9--9--13-13--15-15----------------------------| 
G|---9--9--12-12--14-14----------------------------| 
D|-------------------------------------------------| 
A|-------------------------------------------------| 
E|-------------------------------------------------| 



Solo: 

 
E|-----------12^fb---14FB^^^^^^14BRv-12~~~-12-12---| 
B|-----12-12---------------------------------------| 
G|--11---------------------------------------------| 
D|-------------------------------------------------| 
A|-------------------------------------------------| 
E|-------------------------------------------------| 


 
E|-11^HBR-11---14---15-14H-15P-12-14~~12 11h12p11--| 
B|-----------12------------------------------------| 
G|----------------11-------------------------------| 
D|-------------------------------------------------| 
A|-------------------------------------------------| 
E|-------------------------------------------------| 


 
E|-11^HBR-14--14---15^FB-15~~~-15-15-14-14-14-12---| 
B|------12---12------------------------------------| 
G|-------------------------------------------------| 
D|-------------------------------------------------| 
A|-------------------------------------------------| 
E|-------------------------------------------------| 


 
E|-12-11H-12-14----------19-19~~-20-19-19--17h-19--| 
B|--------------12--12-----------------------------| 
G|-------------------------------------------------| 
D|-------------------------------------------------| 
A|-------------------------------------------------| 
E|-------------------------------------------------| 


 
E|-P17-17------------------------------------------| 
B|--------20--17h-20p-17--17-----------------------| 
G|---------------------------17h-19p-17------------| 
D|--------------------------------------19//21-----| 
A|-------------------------------------------------| 
E|-------------------------------------------------| 


Outro Chorus: 

 
E|--------8-8----------10--10----------------------| 
B|--9-9---8-8---12-12--10--10----------------------| 
G|--9-9---9-9---12-12--11--11----------------------| 
D|--9-9--10-10--12-12--12--12----------------------| 
A|--7-7--10-10--10-10--12--12----------------------| 
E|--------8--8---------10--10----------------------| 


 
		  

Full key step upFull key step up
Half key step upHalf key step up
Half key step downHalf key step down
Full key step downFull key step down
hide glossary

See also:

tabs James Blunt - Cry tabs Iron Butterfly - IronButterfly-in A Gadda Da Vida tabs Stone Sour - Through glass (ver. 2) tabs Candlebox - Far behind tabs Mudvayne - World so cold tabs James Blunt - Wisemen
e-chords

Other versions:

tabs Velvet Revolver - American Man
auto scroll beats size up size down change color hide chords drawings
tab show chords e-chords YouTube Clip e-chords hide all tabs e-chords go to top tab

share