Velhas Virgens

home > Velhas Virgens

Vampiro Doidão Tab

Velhas Virgens

Difficulty: AdvancedAdvanced

by emersonbebe

tuner correct add songbook print version text version save to e-mail
chordsukulelecavacokeyboardtabbassdrumsharmonicsflute Guitar Pro
chords

Vampiro Doidão

  		pow gente, eu baixei uma musica da internet que diz se dizer  
da banda velhas virgens, mas não se se é não 
 
se voce pegou uma musica que começa com 'uno ,dos ,one ,two tres quatro' 
então essa é a tablatura do solinho do começo 
 
E|----------7------------7-----------7------------6 
B|-----8------------------------------------------- 
G|9--------------8--8---------7----7------x--6----- 
D|------------------------------------------------- 
A|------------------------------------------------- 
E|------------------------------------------------- 
                         
-----------6---5----5--------5~ 
---------------5----5--------5~ 
--x---6--------6----6--------6~ 
---------------7----7--------7~ 
---------------7----7--------7~ 
---------------5----5--------5~ 
 
 
 
 

	  

Search Paypal
auto scroll beats size up size down change color hide chords drawings
tab show chords e-chords YouTube Clip e-chords hide all tabs e-chords go to top tab