Velhas Virgens

home > Velhas Virgens

Ninguém Beija Como As Lésbicas Tab

Velhas Virgens

Difficulty: nolevelnolevel

by educastilho

tuner correct add songbook print version text version save to e-mail
chordsukulelecavacokeyboardtabbassdrumsharmonicsflute Guitar Pro
chords

Ninguém Beija Como As Lésbicas

  		Intro: B5 A5 G5 Gb5 

Riff 1 e 1ª parte: 
 
E|------------------------------------------ 
B|-7---------------------------------------- 
G|-7h9p7------------7----------------------- 
D|--------7-9-7~----7h9p7--3-5-3--2/32~---- 
A|------------------------------------------ 
E|------------------------------------------ 
 

 
E|------------------------------------------ 
B|-9-7-------------------------------------- 
G|-9-7h9p7------------7--------------------- 
D|----------7-9-7~----7h9p7--3-5-3--2/32~-- 
A|------------------------------------------ 
E|------------------------------------------ 
 

Variação: 
 
E|------------------------------------------ 
B|-7---------------------------------------- 
G|-7h9p7------------------------------------ 
D|--------7-9-7~----7h9p7---3-5-3--2/32~--- 
A|------------------------------------------ 
E|------------------------------------------ 
 

 
E|------------------------------------------ 
B|-9-7-------------------------------------- 
G|-9-7h9p7---------------------------------- 
D|----------7-9-7~----7h9p7--3-5-3--2/32~-- 
A|------------------------------------------ 
E|------------------------------------------ 
 

Pré-refrão: G5  Gb5 

Refrão: B5 A5 G5 Gb5 
	  

Full key step upFull key step up
Half key step upHalf key step up
Half key step downHalf key step down
Full key step downFull key step down
Search Paypal
auto scroll beats size up size down change color hide chords drawings
tab show chords e-chords YouTube Clip e-chords hide all tabs e-chords go to top tab