Vasco Rossi

Gabri

Vasco Rossi

tabs Expert expert

by  ALESSANCIPRIANI

save to print version add songbook text version e-mail correct tuner
chordsukulelecavacokeyboardtabbassdrumsharmonicaflute Guitar Pro
close

there isn't a video lesson for this song

chords

Gabri

	  		---------------------------|------------------------|------------------- 
--5---3----5---3----5----3-|-3h5--3--3h5--3--3h5--3-|-3h5--3--2----3-5-- 
---------------------------|------------------------|------------------- 
---------------------------|------------------------|------------------- 
---------------------------|------------------------|------------------- 
---------------------------|------------------------|------------------- 
 
-----10\8------------------|------------------------|---------------------- 
-6---10\8-10p8-------------|--------------------5-6-|-6/8-6p5-6p5------5--5 
--------------9-7-----7-9--|-------------------5----|------------7-5-7---5- 
-----------------10-10---10|------------------------|-------------------7-- 
---------------------------|-8----------------------|---------------------- 
---------------------------|------------------------|---------------------- 
 
-----------8-5-------------|---------- 
----------8---8---------5-6|-6-8------ 
-7-----------------4-5-7---|---------- 
---------------5-7---------|---------- 
---------------------------|---------- 
---------------------------|---------- 

		  

auto scroll beats size up size down change color hide chords drawings
tab show chords e-chords YouTube Clip e-chords hide all tabs e-chords go to top tab

share