Vasco Rossi

Albachiara

Vasco Rossi

tabs Expert expert

by  ALESSANCIPRIANI

save to print version add songbook text version e-mail correct tuner
chordsukulelecavacokeyboardtabbassdrumsharmonicaflute Guitar Pro
close

there isn't a video lesson for this song

chords

Albachiara

	  		INTRO: (Arpeggiato) (Ho cercato di riportare il più possibile le note 
del piano!) 
---------------------------0------------| 
3-----1----0---------0-1-3-------0---0--| 
-----------------2-----------------0----| 
----------------------------------------| 
3--3-----3----3-------------------------| 
------------------------------3---------| 
|------------------------------------------------------------|- 
|-----------------0--0--0--0-----1--1--1--1-----3--3--3--3---|- 
|--2--2--2--2-----0--0--0--0-----2--2--2--2-----4--4--4--4---|- 
|--3--3--3--3------------------------------------------------|- 
|------------------------------------------------------------|- 
|------------------------------------------------------------|- 
|---------------------------------------------0--0--0--... 
|-0--0--0--0----1--1--1--1-----3--3--3--3-----1--1--1--... 
|-0--0--0--0----2--2--2--2-----4--4--4--4-----------------... 
|-------------------------------------------------------... 
|-------------------------------------------------------... 
|-------------------------------------------------------... 
TEMA: 
..il tabulato segue le note del piano...si può sempre sostituire con i 
classici accordi: 
C G Am C F C D G 
Respiri piano per non far rumore ti addormenti di sera e ti risvegli col 
sole 
-0---------------------------------------------------------------------------------- 
-1--------------------3-------------------1----------------------0---------3--2----- 
----------------------4-------------------2----------------------0---------4--3----- 
------------------------------------------------------------------------------------ 
------------------------------------------------------------------------------------ 
------------------------------------------------------------------------------------ 
sei chiara come un' alba, sei fresca come l'aria 
------------------------------------------------------------------------------------ 
------------------------------------------------------------------------------------ 
---------------------0------0------------------------------------------------------- 
---------------------2----2---2---------4------------------------------------------- 
----------------------------------------5--------------------------------2---3---5--- 
---------------------------------------------------------------3---------3---5---7--- 
(Adesso si comincia ad arpeggiare enfatizzando i bassi indicati dopo 
le / ) 
C G/B 
Diventi rossa se qualcuno ti guarda 
3 
Am C/G 
sei fantastica quando sei assorta 
F C D G7 
nei tuoi problemi, nei tuoi pensieri 
Ti vesti svogliatamente, non metti mai niente 
che possa attirare attenzione 
un particolare, solo per farti guardare. 
C G Am C F C D G7 D G 
E con la faccia pulita cammini per strada, 
mangiando una mela, coi libri di scuola,ti piace studiare 
non te ne devi vergognare ! 
E qualche volta fai pensieri strani... 
...con una mano, una mano ti sfiori. 
Tu sola dentro la stanza 
e tutto il mondo fuori !!! 
OUTRO: C G Am C F C D G7 D G 

		  

Full key step upFull key step up
Half key step upHalf key step up
Half key step downHalf key step down
Full key step downFull key step down
hide glossary

See also:

tabs Verdena - Mi Coltivo tabs Vasco Rossi - Gabri tabs Verdena - 1000 Anni Con Elide tabs Verdena - Sci Desertico tabs Ministri - Noi Fuori tabs Subsonica - Istantanee
e-chords

Other versions:

tabs Vasco Rossi - Albachiara
auto scroll beats size up size down change color hide chords drawings
tab show chords e-chords YouTube Clip e-chords hide all tabs e-chords go to top tab

share