Vampires Everywhere

Undead Heart

Vampires Everywhere

tabs

by  CARLLUZ

save to print version add songbook text version e-mail correct tuner
chordsukulelecavacokeyboardtabbassdrumsharmonicaflute Guitar Pro
close

there isn't a video lesson for this song

chords

Undead Heart

	  		INTRO 
D----------------------------------------------------------| 
A----------------------------------------------------------| 
F----------------------------------------------------------| 
C----88888888---77777777---5555555555555555----------------|X2 
G----88888888---77777777---5555555555555555----------------| 
C----------------------------------------------------------| 


Pre-Chorus 
D----------------------------------------------------------| 
A----------------------------------------------------------| 
F-------------------7--------------------------------------| 
C-------------5---------7p5-x4-----------------------------| 
G---00x16--------------------------------------------------| 
C---00-----------------------------------------------------| 
    ** 


D----------------------------------------------------------| 
A----------------------------------------------------------| 
F----------------------------------------------------------| 
C----3-----5-----8-----10-10-10---88-88--------------------| 
G----3-----5-----8-----10-10-10---88-88--------------------| 
C----3-----5-----8-----10-10-10---88-88--------------------| 
                                  ** ** 
Chorus 
D----------------------------------------------------------| 
A----------------------------------------------------------|  
F----------------------------------------------------------|   
C----8-------3-------5-------------------------------------|X3   
G----8-x8----3-x8----3-x14---------------------------------|  
C----8-----------------------------------------------------| 


D----------------------------------------------------------| 
A----------------------------------------------------------| 
F----------------------------------------------------------| 
C----8-------3-------00000000----0-0-0000------------------| 
G----8-x8----3-x8----00000000----0-0-0000------------------| 
C----8---------------00000000----0-0-0000------------------| 
                     ********    * * **** 

D----------------------------------------------------------| 
A----------------------------------------------------------| 
F---------------------------7------------------------------| 
C----0--------1--------5---------7p5-x4--------------------| 
G----0-x20----1-x20----------------------------------------| 
C----0--------1--------------------------------------------| 
     *        * 

D----------------------------------------------------------| 
A----------------------------------------------------------| 
F----------------------------------------------------------| 
C----3-----5-----8-----(10-10-10--10-10-10---10--10--10)---| 
G----3-----5-----8-----(10-10-10--10-10-10---10--10--10)---| 
C----3-----5-----8-----(10-10-10--10-10-10---10--10--10)---| 
                      (played fast with no distortion) 

D----------------------------------------------------------| 
A----------------------------------------------------------|  
F----------------------------------------------------------|   
C----8-------3-------5-------------------------------------|X4   
G----8-x8----3-x8----3-x14---------------------------------|  
C----8-----------------------------------------------------| 

SOLO 
D----------------------------------------------------------| 
A--3/6-6p4-6/8-6p4-3-5-8---3/6--10-11-13---17p14-----------|not sure how many times u pull off  
F----------------------------------------------------------|on 17p14, so do whatever sounds best. :)   
C----------------------------------------------------------| 
G----------------------------------------------------------|  
C----------------------------------------------------------| 



D----------------------------------------------------------| 
A--17-16-13---17-16-13---10-13-9/0-------------------------|  
F----------------------------------------------------------|   
C----------------------------------------------------------| 
G----------------------------------------------------------|  
C----------------------------------------------------------| 

END OF SOLO 
D----------------------------------------------------------| 
A----------------------------------------------------------|  
F----------------------------------------------------------|   
C----1/12---12/1---8-8---8-8-------------------------------| 
G----1/12---12/1---8-8---8-8-------------------------------|  
C----1/12---12/1---8-8---8-8-------------------------------| 
                   * *   * * 
Chorus 
D----------------------------------------------------------| 
A----------------------------------------------------------|  
F----------------------------------------------------------|   
C----8-------3-------5-------------------------------------|X3   
G----8-x8----3-x8----3-x14---------------------------------|  
C----8-----------------------------------------------------| 





D----------------------------------------------------------| 
A----------------------------------------------------------|  
F----------------------------------------------------------|   
C----8-------3------00000000---8---------------------------|   
G----8-x8----3-x8---00000000---8---------------------------|  
C----8--------------00000000---8---------------------------| 
                               ^(Let Ring Out) 
		  

See also:

tabs Deep Purple - Demonds Eye tabs Deep Purple - Money Talks tabs Ira! - Eu Quero Sempre Mais (Com Pitty, intro) tabs Albert Hammond Jr - Holiday tabs Deep Purple - Smoke on the water (intro) tabs Deep Purple - Smoke on the Water (ver. 2)
e-chords

Other versions:

tabs Vampires Everywhere - Undead Heart
auto scroll beats size up size down change color hide chords drawings
tab show chords e-chords YouTube Clip e-chords hide all tabs e-chords go to top tab

share