Valerie Series

La Guerra Contra Los Transparentes

Valerie Series

tabs

by  EDUCASTILHO

save to print version add songbook text version e-mail correct tuner
chordsukulelecavacokeyboardtabbassdrumsharmonicaflute Guitar Pro
close

there isn't a video lesson for this song

chords

La Guerra Contra Los Transparentes

	  		ME pase 3 horas escuchando la cancion , y me demore 1 en 
 sacarla , pero valio la pena, esta 
en un 90 % correcta , me falta aun 
la segunda guitarra ( algunas partes) 
pero en si esta bien para tocarla 
aki les dejo el tab 
100% hecho por mi Qzzy 

Intro 
Guitarra 1 
E ---------2---4----2---4-------/--2---4----2---4------------ 
A -1*----1-4-4-6--1-4-4-6--1111-/-1-4-4-6--1-4-4-6------------ 
D -3*----3-4-6-6--3-4-6-6--3333-/-3-4-6-6--3-4-6-6------------ 
G -3*----3---6----3---6----3333-/-3---6----3---6-------------- 
B ------------------------------/---------------------------- 
E ------------------------------/----------------------------- 
*Dejar Sonar    ( solo en este caso, luego significa palm mute) 

Guitarra 2 

E -/---+-------222-444-+--------+---4-2-+----------- 
A -/---+-11111-444-666-+--------+-1-6-4-+----------- 
D -/---+-33333-444-666-+-x4-----+-3-6-4-+-x2-------- 
G -/---+-33333---------+--------+-3-----+----------- 
B -/---+---------------+--------+-------+----------- 
E -/---+---------------+--------+-------+----------- 

La barra del ?/? simboliza la parte de la canción, es decir 
k después del 
?/? la Guitarra  2 entra acompañada de la Primera 

Verso 

E -+------------------2------2------+--------------------- 
A -+-1------1-----------4--------4--+--------------------- 
D -+---3--------3---------4----4----+--x2----------------- 
G -+-----3----3---------------------+--------------------- 
B -+--------------------------------+--------------------- 
E -+--------------------------------+--------------------- 

E ----------------- 
A ----------------- 
D ---X2------------ 
G ----------------- 
B ----------------- 
E ----------------- 
        P.M               P.M 
E -+-11111111111111112222222222222222--+------------------- 
A -+-33333333333333334444444444444444--+------------------- 
D -+-33333333333333334444444444444444--+---x2--------------- 
G -+-----------------------------------+------------------- 
B -+-----------------------------------+------------------- 
E -+-----------------------------------+------------------- 


Inter-Verso 

E -+----2---222--+----------------------------------------- 
A -+--1-4-1-444--+----------------------------------------- 
D -+--3-4-3-444--+--x5------------------------------------- 
G -+--3---3------+----------------------------------------- 
B -+-------------+----------------------------------------- 
E -+-------------+----------------------------------------- 



Verso (x1) 
Inter- Verso (x1) 


Interlude 

E ------222-----444--------------------------------------- 
A --111-444-444-666--------------------------------------- 
D --333-444-666-666--------------------------------------- 
G --333-----666------------------------------------------- 
B -------------------------------------------------------- 
E -------------------------------------------------------- 

E -----------2222222---------4444444---- 
A --1111111--4444444-4444444-6666666---- 
D --3333333--4444444-6666666-6666666---- 
G --3333333----------6666666------------ 
B --********************************---- 
E -------------P.M Rapido--------------- 

Verso Variado 

Ellos son los k obtienen el?? 

E --+---2-4---- 
A ------ 
D ---X2- 
G ------ 
B ------ 
E ------ 

Intermedio 

E --+----------+------- 
A --+-6666x6x6-+------- 
D --+-8888x8x8-+-x4---- 
G --+-8888x8x8-+------- 
B --+----------+------- 
E --+----------+------- 



Verso Libre (x1) 

   Que lo intenten? 
E -4 
		  

auto scroll beats size up size down change color hide chords drawings
tab show chords e-chords YouTube Clip e-chords hide all tabs e-chords go to top tab

share