Urban Waste

Police Brutality

Urban Waste

tabs

by  ALEFFEDERICO

save to print version add songbook text version e-mail correct tuner
chordsukulelecavacokeyboardtabbassdrumsharmonicaflute Guitar Pro
close

there isn't a video lesson for this song

chords

Police Brutality

	  		Riff 1 
E-----------------------------------------------------------------------| 
B-----------------------------------------------------------------------| 
G--(b9)(b9)(b9)(b9)12--12-11--8-8-8-8-11-11-10--5-5-5-5-5-5-5-5-5-5-5-5-5-5-5-5-| 
D--(b9)(b9)(b9)(b9)12--12-11--8-8-8-8-11-11-10--5-5-5-5-5-5-5-5-5-5-5-5-5-5-5-5-| 
A--7-7-7-7-10--10-(b9)--6-6-6-6-(b9)-(b9)-8---3-3-3-3-3-3-3-3-3-3-3-3-3-3-3-3-| 
E-----------------------------------------------------------------------| 

E---------------------------------------------------------------------| 
B---------------------------------------------------------------------| 
G---------------------------------------------------------------------| 
D--7-7-7-7-10-10-(b9)--6-6-6-6-(b9)-(b9)8---4-4-4-4-4-4-4-4-4-4-4-4-4-4-4-4-| 
A--7-7-7-7-10-10-(b9)--6-6-6-6-(b9)-(b9)8---4-4-4-4-4-4-4-4-4-4-4-4-4-4-4-4-| 
E--5-5-5-5-8--8--7---4-4-4-4-7--7-6---2-2-2-2-2-2-2-2-2-2-2-2-2-2-2-2-| 

Riff 2 
E--------------------------------------------------------------| 
B--------------------------------------------------------------| 
G--------------------------------------------------------------| 
D--3-3-3-3-4-4-4-4-3-3-3-3-4-4-4-4-3-3-3-3-4-4-4-4-3-3-3-3-4---| 
A--3-3-3-3-4-4-4-4-3-3-3-3-4-4-4-4-3-3-3-3-4-4-4-4-3-3-3-3-4---| 
E--1-1-1-1-2-2-2-2-1-1-1-1-2-2-2-2-1-1-1-1-2-2-2-2-1-1-1-1-2---| 

Outro 
E---------------------| 
B---------------------| 
G--(b9)(b9)(b9)(b9)12--12-11--| 
D--(b9)(b9)(b9)(b9)12--12-11--| 
A--7-7-7-7-10--10-(b9)--| 
E---------------------| 

Riff 1 x2 
Riff 2 x1 
Riff 1 x2 
Riff 2 x1 
Outro  x1 
		  

auto scroll beats size up size down change color hide chords drawings
tab show chords e-chords YouTube Clip e-chords hide all tabs e-chords go to top tab

share