Upon A Burning Body

Fountain Of Wishes

Upon A Burning Body

tabs

by  ADALGOMES

save to print version add songbook text version e-mail correct tuner
chordsukulelecavacokeyboardtabbassdrumsharmonicaflute Guitar Pro
close

there isn't a video lesson for this song

chords

Fountain Of Wishes

	  		

Guitar 1 (w/ dist) 

E|-------------|-------------|--------|------------------------------------------| 
B|-------------|-------------|--------|------------------------------------------| 
G|-------------|-------------|--------|------------------------------------------| 
D|-7------7s10-|-9------9s12-|-10-----|-10-10-10-10-10-10-10-10-10-9-9-9-9-9-9-9-| 
A|-x------x-x--|-x------x-x--|-x------|-x--x--x--x--x--x--x--x--x--x-x-x-x-x-x-x-| 
E|-5------5s8--|-7------7s10-|-8------|-8--8--8--8--8--8--8--8--8--7-7-7-7-7-7-7-| 
A|-------------|-------------|--------|------------------------------------------| 

E|-------------|-------------|--------|-------------------------------------------------| 
B|-------------|-------------|--------|-------------------------------------------------| 
G|-------------|-------------|--------|-------------------------------------------------| 
D|-7------7s10-|-9------9s12-|-10-----|-12-12-12-12-12-12-12-12-12-14-14-14-14-14-14-14-| 
A|-x------x-x--|-x------x-11-|-x------|-x--x--x--x--x--x--x--x--x--x--x--x--x--x--x--x--| 
E|-5------5s8--|-7------7s10-|-8------|-10-10-10-10-10-10-10-10-10-12-12-12-12-12-12-12-| 
A|-------------|-------------|--------|-------------------------------------------------| 

Guitar 2 (w/ dist) 

E|-------------|-------------|--------|------------------------------------------| 
B|-------------|-------------|--------|------------------------------------------| 
G|-------------|-------------|--------|------------------------------------------| 
D|-7------7s10-|-9------9s12-|-10-----|-10-10-10-10-10-10-10-10-10-9-9-9-9-9-9-9-| 
A|-x------x-x--|-x------x-x--|-x------|-x--x--x--x--x--x--x--x--x--x-x-x-x-x-x-x-| 
E|-5------5s8--|-7------7s10-|-8------|-8--8--8--8--8--8--8--8--8--7-7-7-7-7-7-7-| 
A|-------------|-------------|--------|------------------------------------------| 

E|-------------|-------------|--------|-------------------------------------------------| 
B|-------------|-------------|--------|-------------------------------------------------| 
G|-------------|-------------|--------|-------------------------------------------------| 
D|-10----10-14-|-12----12s15-|-14-----|-15-15-15-15-15-15-15-15-15-18-18-18-18-18-18-18-| 
A|-x-----x--x--|-x-----x--x--|-x------|-x--x--x--x--x--x--x--x--x--x--x--x--x--x--x--x--| 
E|-8-----8--12-|-10----10s13-|-12-----|-13-13-13-13-13-13-13-13-13-16-16-16-16-16-16-16-| 
A|-------------|-------------|--------|-------------------------------------------------| 

----------------------------------------------------------------------------------------- 
|                                   VERSE (00:17-00:52)                                 | 
----------------------------------------------------------------------------------------- 

I. Guitar 1 (w/ dist) 

E|---------------------------------|-----------------------------------| 
B|---------------------------------|-----------------------------------| 
G|---------------------------------|-----------------------------------| 
D|---------------------------------|-----------------------------------| 
A|---------------------------------|-----------------------------------| 
E|-5-----------------------8-------|-7-----------------------0h1p0-----| 
A|---3-2-0-0-0-0-0-0-0-0-0---7-5-0-|---5-3-0-0-0-0-0-0-0-0-0-------3-0-| 
           * * *   *   * *                   * * *   *   * * 
E|---------------------------------|---------------------------------| 
B|---------------------------------|---------------------------------| 
G|---------------------------------|---------------------------------| 
D|---------------------------------|-------------6-6-6-9-9-9-9-9-9-9-| 
A|---------------------------------|-------------x-x-x-x-x-x-x-x-x-x-| 
E|-5-----------------------8-------|-3-3-3-5-5-5-4-4-4-7-7-7-7-7-7-7-| 
A|---3-2-0-0-0-0-0-0-0-0-0---7-5-0-|-0-0-0-0-0-0---------------------| 
           * * *   *   * *           * * * * * * 
E|---------------------------------|-----------------------------------| 
B|---------------------------------|-----------------------------------| 
G|---------------------------------|-----------------------------------| 
D|---------------------------------|-----------------------------------| 
A|---------------------------------|-----------------------------------| 
E|-5-----------------------8-------|-7-----------------------0h1p0-----| 
A|---3-2-0-0-0-0-0-0-0-0-0---7-5-0-|---5-3-0-0-0-0-0-0-0-0-0-------3-0-| 
           * * *   *   * *                   * * *   *   * * 
E|---------------------------------|-----------------------------------|-------| 
B|---------------------------------|-----------------------------------|-------| 
G|---------------------------------|-----------------------------------|-------| 
D|---------------------------------|-------------6-6-6-9-9-9-----------|-------| 
A|---------------------------------|-------------x-x-x-x-x-x-----------|-------| 
E|-5-----------------------8-------|-3-3-3-5-5-5-4-4-4-7-7-7-----------|-0-----| 
A|---3-2-0-0-0-0-0-0-0-0-0---7-5-0-|-0-0-0-0-0-0-------------7h8p7-3-0-|-0-----| 
           * * *   *   * *           * * * * * *                         * 

   Guitar 2 (w/ dist) 

E|---------------------------------|-----------------------------------| 
B|---------------------------------|-----------------------------------| 
G|---------------------------------|-----------------------------------| 
D|---------------------------------|-----------------------------------| 
A|---------------------------------|-----------------------------------| 
E|-5-----------------------8-------|-7-----------------------0h1p0-----| 
A|---3-2-0-0-0-0-0-0-0-0-0---7-5-0-|---5-3-0-0-0-0-0-0-0-0-0-------3-0-| 
           * * *   *   * *                   * * *   *   * * 
E|---------------------------------|---------------------------------| 
B|---------------------------------|---------------------------------| 
G|---------------------------------|---------------------------------| 
D|---------------------------------|-------------4-4-4-6-6-6-6-6-6-6-| 
A|---------------------------------|-------------x-x-x-x-x-x-x-x-x-x-| 
E|-5-----------------------8-------|-3-3-3-5-5-5-1-1-1-4-4-4-4-4-4-4-| 
A|---3-2-0-0-0-0-0-0-0-0-0---7-5-0-|-0-0-0-0-0-0---------------------| 
           * * *   *   * *           * * * * * * 
E|---------------------------------|-----------------------------------| 
B|---------------------------------|-----------------------------------| 
G|---------------------------------|-----------------------------------| 
D|---------------------------------|-----------------------------------| 
A|---------------------------------|-----------------------------------| 
E|-5-----------------------8-------|-7-----------------------0h1p0-----| 
A|---3-2-0-0-0-0-0-0-0-0-0---7-5-0-|---5-3-0-0-0-0-0-0-0-0-0-------3-0-| 
           * * *   *   * *                   * * *   *   * * 
E|---------------------------------|-----------------------------------|-------| 
B|---------------------------------|-----------------------------------|-------| 
G|---------------------------------|-----------------------------------|-------| 
D|---------------------------------|-------------4-4-4-6-6-6-----------|-------| 
A|---------------------------------|-------------x-x-x-x-x-x-----------|-------| 
E|-5-----------------------8-------|-3-3-3-5-5-5-1-1-1-4-4-4-0h1p0-----|-0-----| 
A|---3-2-0-0-0-0-0-0-0-0-0---7-5-0-|-0-0-0-0-0-0-------------------3-0-|-0-----| 
           * * *   *   * *           * * * * * *                         * 

II. Guitars 1 and 2 (w/ dist) 

E|---------------------------------|---------------------------------| 
B|---------------------------------|---------------------------------| 
G|---------------------------------|---------------------------------| 
D|---------------------------------|---------------------------------| 
A|-2h3-------------7s6---3---2---2-|---------2h3---------2h3-----2h3-| 
E|-2h3-0-----------5s4---1---2---2-|---------2h3---------2h3-----2h3-| 
A|-2h3-0-0-0-0-0-0-----0---0-2-0-2-|-0-0-0-0-2h3-0-0-0-0-2h3-0-0-2h3-| 
       *   * * * *     *   *   *     * * * *     * * * *     * *  
E|---------------------------------|-----------------------------| 
B|---------------------------------|-----------------------------| 
G|---------------------------------|-----------------------------| 
D|---------------------------------|-----------------------------| 
A|-2h3-------------7s6---3---2---2-|-------------8-7-------------| 
E|-2h3-------------5s4---1---2---2-|-----------------8-5-4-5s8~~~| 
A|-2h3-0-0-0-0-0-0-----0---0-2-0-2-|-0-0-0-0-0-0-----------------| 
       *   * * * *     *   *   *     * * * * * *          
E|---------------------------------|---------------------------------| 
B|---------------------------------|---------------------------------| 
G|---------------------------------|---------------------------------| 
D|---------------------------------|---------------------------------| 
A|-2h3-------------7s6---3---2---2-|---------2h3---------2h3-----2h3-| 
E|-2h3-0-----------5s4---1---2---2-|---------2h3---------2h3-----2h3-| 
A|-2h3-0-0-0-0-0-0-----0---0-2-0-2-|-0-0-0-0-2h3-0-0-0-0-2h3-0-0-2h3-| 
       *   * * * *     *   *   *     * * * *     * * * *     * *  
E|---------------------------------|-----------------------------| 
B|---------------------------------|-----------------------------| 
G|---------------------------------|-----------------------------| 
D|---------------------------------|-----------------------------| 
A|-2h3-------------7s6---3---2---2-|-----------------------------| 
E|-2h3-------------5s4---1---2---2-|-----------------------------| 
A|-2h3-0-0-0-0-0-0-----0---0-2-0-2-|-0-0-0-0-0-0-0-0-------------| 
       *   * * * *     *   *   *     * * * * * * * *    
                         
----------------------------------------------------------------------------------------- 
|                                 Pre-Chorus (00:52-01:09)                              | 
----------------------------------------------------------------------------------------- 

Guitar 1 (w/ dist) 

E|--------------------------------------|-----------------------------------------| 
B|--------------------------------------|-----------------------------------------| 
G|--------------------------------------|-----------------------------------------| 
D|--------------------------------------|-----------------------------------------| 
A|-0---2---3----------------------------|-----------------------------------------| 
E|-0---2---3----------------------------|-----------------------------------------|\ 
A|-0---2---3--0-0-0-0-0----0-0-0-0-0----|----0-0-0--0-0-0-------0-0-0--0-0-0------| \ 
              * * * * *    * * * * *         * * *  * * *       * * *  * * *         x2 
E|-----------------------------------------|--------------------------------------| / 
B|-----------------------------------------|--------------------------------------|/ 
G|-----------------------------------------|--------------------------------------| 
D|-----------------------------------------|--------------------------------------| 
A|-0---2---3-------------------------12-11-|----------------------8-7-------------| 
E|-0---2---3-------------------------------|-13-12--------------------8-5-4-5s8~~~| 
A|-0---2---3--0-0-0-0-0----0-0-0-0-0-------|--------0-0-0--0-0-0------------------| 
              * * * * *    * * * * * *  *    *  *   * * *  * * * 

Guitar 2 (w/ dist) 

E|--------------------------------------|-----------------------------------------| 
B|--------------------------------------|-----------------------------------------| 
G|--------------------------------------|-----------------------------------------| 
D|--------------------------------------|-----------------------------------------| 
A|-0---2---3----------------------------|-----------------------------------------| 
E|-0---2---3----------------------------|-----------------------------------------| 
A|-0---2---3--0-0-0-0-0----0-0-0-0-0----|----0-0-0--0-0-0-------0-0-0--0-0-0------| 
              * * * * *    * * * * *         * * *  * * *       * * *  * * *          
E|--------------------------------------|--------------------------------------| 
B|--------------------------------------|--------------------------------------| 
G|--------------------------------------|--------------------------------------| 
D|--------------------------------------|--------------------------------------| 
A|-0---2---3----------------------------|------------------12-11---------------| 
E|-0---2---3----------------------------|------------------------12-8-7-8s12~~~| 
A|-0---2---3--0-0-0-0-0----0-0-0-0-0----|----0-0-0--0-0-0----------------------| 
              * * * * *    * * * * *         * * *  * * *  
E|--------------------------------------|-----------------------------------------| 
B|--------------------------------------|-----------------------------------------| 
G|--------------------------------------|-----------------------------------------| 
D|--------------------------------------|-----------------------------------------| 
A|-0---2---3----------------------------|-----------------------------------------| 
E|-0---2---3----------------------------|-----------------------------------------| 
A|-0---2---3--0-0-0-0-0----0-0-0-0-0----|----0-0-0--0-0-0-------0-0-0--0-0-0------| 
              * * * * *    * * * * *         * * *  * * *       * * *  * * *          
E|---------------------------------------|--------------------------------------| 
B|---------------------------------------|--------------------------------------| 
G|---------------------------------------|--------------------------------------| 
D|---------------------------------------|--------------------------------------| 
A|-0---2---3-------------------------8-7-|------------------12-11---------------| 
E|-0---2---3-----------------------------|-9-8--------------------12-8-7-8s12~~~| 
A|-0---2---3--0-0-0-0-0----0-0-0-0-0-----|-----0-0-0--0-0-0---------------------| 
              * * * * *    * * * * * * *   * * * * *  * * *  

Guitar 3 (w/ dist) 
                                                               ------------------------------| 
E|-----------------------------------|---------------------------------|                     | 
B|-----------------------------------|---------------------------------|                     | 
G|-----------------------------------|---------------------------------|                     | 
D|-7-7-7-9-9-9-10-10-7-7-7-7-7-7-7-7-|-7-7-7-7-7-7-7-7-7-7-7-7-7-7-7-7-|                     | 
A|-x-x-x-x-x-x-x--x--x-x-x-x-x-x-x-x-|-x-x-x-x-x-x-x-x-x-x-x-x-x-x-x-x-|                     | 
E|-5-5-5-7-7-7-8--8--5-5-5-5-5-5-5-5-|-5-5-5-5-5-5-5-5-5-5-5-5-5-5-5-5-|                     | 
A|-----------------------------------|---------------------------------|                     | 
                                                                                             | x2 
E|-----------------------------------|-------------------------------------------------|     | 
B|-----------------------------------|-------------------------------------------------|     | 
G|-----------------------------------|-------------------------------------------------|     | 
D|-7-7-7-9-9-9-10-10-6-6-6-6-6-6-6-6-|-10-10-10-10-10-10-10-10-14-14-14-14-14-14-14-14-|     | 
A|-x-x-x-x-x-x-x--x--x-x-x-x-x-x-x-x-|-x--x--x--x--x--x--x--x--x--x--x--x--x--x--x--x--|     | 
E|-5-5-5-7-7-7-8--8--4-4-4-4-4-4-4-4-|-8--8--8--8--8--8--8--8--12-12-12-12-12-12-12-12-|     | 
A|-----------------------------------|-------------------------------------------------|     | 
                                                               ------------------------------| 

----------------------------------------------------------------------------------------- 
|                                    Chorus (01:09-01:27)                               | 
----------------------------------------------------------------------------------------- 

Guitars 1 and 2 (w/ dist) 

E|---------------------------------|---------------------------------| 
B|---------------------------------|---------------------------------| 
G|---------------------------------|---------------------------------| 
D|---------------------------------|---------------------------------| 
A|-0-0-0-0-0-0-0-0-0-0-0-0-0-0-0-0-|-5-5-5-5-5-5-5-5-5-5-5-5-5-5-5-5-| 
E|-0-0-0-0-0-0-0-0-0-0-0-0-0-0-0-0-|-5-5-5-5-5-5-5-5-5-5-5-5-5-5-5-5-| 
A|-0-0-0-0-0-0-0-0-0-0-0-0-0-0-0-0-|-5-5-5-5-5-5-5-5-5-5-5-5-5-5-5-5-| 

E|---------------------------------|---------------------------------| 
B|---------------------------------|---------------------------------| 
G|---------------------------------|---------------------------------| 
D|---------------------------------|---------------------------------| 
A|-7-7-7-7-7-7-7-7-7-7-8-8-8-8-8-8-|-7-7-7-7-7-7-7-7-7-7-7-7-7-7-7-7-| 
E|-7-7-7-7-7-7-7-7-7-7-8-8-8-8-8-8-|-7-7-7-7-7-7-7-7-7-7-7-7-7-7-7-7-| 
A|-7-7-7-7-7-7-7-7-7-7-8-8-8-8-8-8-|-7-7-7-7-7-7-7-7-7-7-7-7-7-7-7-7-| 

E|---------------------------------|---------------------------------| 
B|---------------------------------|---------------------------------| 
G|---------------------------------|---------------------------------| 
D|---------------------------------|---------------------------------| 
A|-0-0-0-0-0-0-0-0-0-0-0-0-0-0-0-0-|-5-5-5-5-5-5-5-5-5-5-5-5-5-5-5-5-| 
E|-0-0-0-0-0-0-0-0-0-0-0-0-0-0-0-0-|-5-5-5-5-5-5-5-5-5-5-5-5-5-5-5-5-| 
A|-0-0-0-0-0-0-0-0-0-0-0-0-0-0-0-0-|-5-5-5-5-5-5-5-5-5-5-5-5-5-5-5-5-| 

E|---------------------------------|------------------------------| 
B|---------------------------------|------------------------------| 
G|---------------------------------|------------------------------| 
D|---------------------------------|------------------------------| 
A|-7-7-7-7-7-7-7-7-7-7-8-8-8-8-8-8-|-7-7-7-7-7-7-7-7-7-7-7-7------| 
E|-7-7-7-7-7-7-7-7-7-7-8-8-8-8-8-8-|-7-7-7-7-7-7-7-7-7-7-7-7------| 
A|-7-7-7-7-7-7-7-7-7-7-8-8-8-8-8-8-|-7-7-7-7-7-7-7-7-7-7-7-7-14s\-| 

Guitar 3 (w/ dist) 

E|-----------------------------------------|-------------------------------------------------| 
B|-----------------------------------------|-------------------------------------------------| 
G|-----------------------------------------|-------------------------------------------------| 
D|-10-10-10-10-10-10-10-10-7-7-7-7-7-7-7-7-|-12-12-12-12-12-12-12-12-10-10-10-10-10-10-10-10-| 
A|-x--x--x--x--x--x--x--x--x-x-x-x-x-x-x-x-|-x--x--x--x--x--x--x--x--x--x--x--x--x--x--x--x--| 
E|-8--8--8--8--8--8--8--8--5-5-5-5-5-5-5-5-|-10-10-10-10-10-10-10-10-8--8--8--8--8--8--8--8--|\ 
A|-----------------------------------------|-------------------------------------------------| \ 
                                                                                                x2 
E|-------------------------------------------------|-----------------------------------------| / 
B|-------------------------------------------------|-----------------------------------------|/ 
G|-------------------------------------------------|-----------------------------------------| 
D|-14-14-14-14-14-14-14-14-14-14-15-15-15-15-15-15-|-16-16-16-16-16-16-16-16-16-16-16-16-----| 
A|-x--x--x--x--x--x--x--x--x--x--x--x--x--x--x--x--|-x--x--x--x--x--x--x--x--x--x--x--x------| 
E|-12-12-12-12-12-12-12-12-12-12-13-13-13-13-13-13-|-14-14-14-14-14-14-14-14-14-14-14-14-----| 
A|-------------------------------------------------|-----------------------------------------| 

----------------------------------------------------------------------------------------- 
|                                    BRIDGE (01:27-01:43)                               | 
----------------------------------------------------------------------------------------- 

E|---------------------------------|-------------------------------| 
B|---------------------------------|-------------------------------| 
G|---------------------------------|-------------------------------| 
D|---------------------------------|-------------------------------| 
A|---------------------------------|-------------------------------|\ 
E|---------------------------------|---------------------------0-0-| \  
A|-0-0-0-0---------0-0-0----0----0-|-0-0-0-0----0-0-0-0-0------0-0-|  \   
   * * *           * *           *   * * *      * * * * *      * *     x2 
E|-----------------------------|-------------------------------------|/ 
B|-----------------------------|-------------------------------------| 
G|-----------------------------|-------------------------------------| 
D|-----------------------------|-6-6-6-6-7-7-7-7-14-14-14-14-9-9-9-9-| 
A|-----------------------------|-x-x-x-x-x-x-x-x-x--x--x--x--x-x-x-x-| 
E|-0-0-0-0--0-0-0-0-0--0--0--0-|-4-4-4-4-5-5-5-5-12-12-12-12-7-7-7-7-| 
A|-0-0-0-0--0-0-0-0-0--0--0--0-|-------------------------------------| 
   * * * *  * * * * *  *  *  * 

----------------------------------------------------------------------------------------- 
|                                   verse 2 (01:43-02:01)                               | 
----------------------------------------------------------------------------------------- 

Guitar 1 (w/ dist) 

E|---------------------------------|-----------------------------------| 
B|---------------------------------|-----------------------------------| 
G|---------------------------------|-----------------------------------| 
D|---------------------------------|-----------------------------------| 
A|---------------------------------|-----------------------------------| 
E|-5-----------------------8-------|-7-----------------------0h1p0-----| 
A|---3-2-0-0-0-0-0-0-0-0-0---7-5-0-|---5-3-0-0-0-0-0-0-0-0-0-------3-0-|\ 
           * * *   *   * *                   * * *   *   * *             x2 
E|---------------------------------|---------------------------------|  / 
B|---------------------------------|---------------------------------| / 
G|---------------------------------|---------------------------------|/ 
D|---------------------------------|-------------6-6-6-9-9-9-9-9-9-9-| 
A|---------------------------------|-------------x-x-x-x-x-x-x-x-x-x-| 
E|-5-----------------------8-------|-3-3-3-5-5-5-4-4-4-7-7-7-7-7-7-7-| 
A|---3-2-0-0-0-0-0-0-0-0-0---7-5-0-|-0-0-0-0-0-0---------------------| 
           * * *   *   * *           * * * * * * 

Guitar 2 (w/ dist) 

E|---------------------------------|-----------------------------------| 
B|---------------------------------|-----------------------------------| 
G|---------------------------------|-----------------------------------| 
D|---------------------------------|-----------------------------------| 
A|---------------------------------|-----------------------------------| 
E|-5-----------------------8-------|-7-----------------------0h1p0-----| 
A|---3-2-0-0-0-0-0-0-0-0-0---7-5-0-|---5-3-0-0-0-0-0-0-0-0-0-------3-0-|\ 
           * * *   *   * *                   * * *   *   * *             x2 
E|---------------------------------|---------------------------------|  / 
B|---------------------------------|---------------------------------| / 
G|---------------------------------|---------------------------------|/ 
D|---------------------------------|-------------4-4-4-6-6-6-6-6-6-6-| 
A|---------------------------------|-------------x-x-x-x-x-x-x-x-x-x-| 
E|-5-----------------------8-------|-3-3-3-5-5-5-1-1-1-4-4-4-4-4-4-4-| 
A|---3-2-0-0-0-0-0-0-0-0-0---7-5-0-|-0-0-0-0-0-0---------------------| 
           * * *   *   * *           * * * * * * 
                                      
----------------------------------------------------------------------------------------- 
|                                   Chorus 2 (02:01-02:35)                              | 
----------------------------------------------------------------------------------------- 

Guitars 1 and 2 (w/ dist) 

E|---------------------------------|---------------------------------| 
B|---------------------------------|---------------------------------| 
G|---------------------------------|---------------------------------| 
D|---------------------------------|---------------------------------| 
A|-0-0-0-0-0-0-0-0-0-0-0-0-0-0-0-0-|-5-5-5-5-5-5-5-5-5-5-5-5-5-5-5-5-| 
E|-0-0-0-0-0-0-0-0-0-0-0-0-0-0-0-0-|-5-5-5-5-5-5-5-5-5-5-5-5-5-5-5-5-|\ 
A|-0-0-0-0-0-0-0-0-0-0-0-0-0-0-0-0-|-5-5-5-5-5-5-5-5-5-5-5-5-5-5-5-5-| \  
                                                                        x4 
E|---------------------------------|---------------------------------| / 
B|---------------------------------|---------------------------------|/ 
G|---------------------------------|---------------------------------| 
D|---------------------------------|---------------------------------| 
A|-7-7-7-7-7-7-7-7-7-7-8-8-8-8-8-8-|-7-7-7-7-7-7-7-7-7-7-7-7-7-7-7-7-| 
E|-7-7-7-7-7-7-7-7-7-7-8-8-8-8-8-8-|-7-7-7-7-7-7-7-7-7-7-7-7-7-7-7-7-| 
A|-7-7-7-7-7-7-7-7-7-7-8-8-8-8-8-8-|-7-7-7-7-7-7-7-7-7-7-7-7-7-7-7-7-| 

Guitar 3 (w/ dist) 

E|-----------------------------------------|-------------------------------------------------| 
B|-----------------------------------------|-------------------------------------------------| 
G|-----------------------------------------|-------------------------------------------------| 
D|-10-10-10-10-10-10-10-10-7-7-7-7-7-7-7-7-|-12-12-12-12-12-12-12-12-10-10-10-10-10-10-10-10-| 
A|-x--x--x--x--x--x--x--x--x-x-x-x-x-x-x-x-|-x--x--x--x--x--x--x--x--x--x--x--x--x--x--x--x--| 
E|-8--8--8--8--8--8--8--8--5-5-5-5-5-5-5-5-|-10-10-10-10-10-10-10-10-8--8--8--8--8--8--8--8--|\ 
A|-----------------------------------------|-------------------------------------------------| \ 
                                                                                                x4 
E|-------------------------------------------------|-----------------------------------------| / 
B|-------------------------------------------------|-----------------------------------------|/ 
G|-------------------------------------------------|-----------------------------------------| 
D|-14-14-14-14-14-14-14-14-14-14-15-15-15-15-15-15-|-16-16-16-16-16-16-16-16-16-16-16-16-----| 
A|-x--x--x--x--x--x--x--x--x--x--x--x--x--x--x--x--|-x--x--x--x--x--x--x--x--x--x--x--x------| 
E|-12-12-12-12-12-12-12-12-12-12-13-13-13-13-13-13-|-14-14-14-14-14-14-14-14-14-14-14-14-----| 
A|-------------------------------------------------|-----------------------------------------| 

----------------------------------------------------------------------------------------- 
|                                   BRIDGE 2 (02:35-02:52)                              | 
----------------------------------------------------------------------------------------- 

Guitars 1 and 2 (w/ dist) 

E|--------|--------| 
B|--------|--------| 
G|--------|--------| 
D|--------|--------| x3 
A|--------|--------| 
E|-0------|--------| 
A|-0------|--------| 

                  V 
E|----------------x-------|--------------| 
B|----------------x-------|--------------| 
G|----------------x-------|--------------| 
D|----------------x-------|--------------| 
A|----------------x-------|--------------| 
E|-0--0--0--0--0-----0--0-|-0--0---------| 
A|-0--0--0--0--0-----0--0-|-0--0---------| 
   *  *  *  *  *     *  *   *  * 

----------------------------------------------------------------------------------------- 
|                                     OUTRO (02:52-03:32)                               | 
----------------------------------------------------------------------------------------- 

Guitars 1 and 2 (w/ dist) 
                                      V          ---------------| 
E|------------------------|-----------x--------------|          | 
B|------------------------|-----------x--------------|          | 
G|------------------------|-----------x--------------|          | 
D|------------------------|-----------x--------------|          | 
A|-3s\--------------------|-----------x--------------|          | 
E|-3s\--0--0--0--0------0-|-0------0------0--0-------|          | 
A|-3s\--0--0--0--0------0-|-0------0------0--0-------|          | 
        *  *  *  *      *   *      *      *  *                  | x3 
E|------------------------------|---------------------------|   | 
B|------------------------------|---------------------------|   | 
G|------------------------------|---------------------------|   | 
D|------------------------------|---------------------------|   | 
A|-3s\--------------------------|--------------------0h1s2--|   | 
E|-3s\--0--0--0--0------0-0-0-0-|-0--0--0------0--0--0h1s2--|   | 
A|-3s\--0--0--0--0------0-0-0-0-|-0--0--0------0--0--0h1s2--|   | 
        *  *  *  *      * * * *   *  *  *      *  *  -----------| 

                                      V  
E|------------------------|-----------x--------------| 
B|------------------------|-----------x--------------| 
G|------------------------|-----------x--------------| 
D|------------------------|-----------x--------------| 
A|-3s\--------------------|-----------x--------------| 
E|-3s\--0--0--0--0------0-|-0------0------0--0-------| 
A|-3s\--0--0--0--0------0-|-0------0------0--0-------| 
        *  *  *  *      *   *      *      *  *   
E|------------------------------|---------------------------| 
B|------------------------------|---------------------------| 
G|------------------------------|---------------------------| 
D|------------------------------|---------------------------| 
A|-3s\--------------------------|---------------------------| 
E|-3s\--0--0--0--0------0-0-0-0-|-0--0--0------0--0---------| 
A|-3s\--0--0--0--0------0-0-0-0-|-0--0--0------0--0---------| 
        *  *  *  *      * * * *   *  *  *      *  * 
		  

See also:

tabs Deep Purple - Strange kind of woman tabs Deep Purple - Smoke On The Water tabs Deep Purple - Time To Kill tabs Albert Hammond Jr - Gfc tabs Deep Purple - Soldier Of Fortune tabs Ira! - Nucleo De Base
e-chords

Other versions:

tabs Upon A Burning Body - Fountain Of Wishes
auto scroll beats size up size down change color hide chords drawings
tab show chords e-chords YouTube Clip e-chords hide all tabs e-chords go to top tab

share