Unwound

We Invent You

Unwound

tabs

by  BOMBAXXX

save to print version add songbook text version e-mail correct tuner
chordsukulelecavacokeyboardtabbassdrumsharmonicaflute Guitar Pro
close

there isn't a video lesson for this song

chords

We Invent You

	  		



Tuning: D A D G A D (low-to-high) 



Fades in with keyboard/synthesizer drone 
@ 2:03 the guitars fade in 
Part I-A: 
Guitar R 
d|------------------------------------------------| 
A|------------------------------------------------| 
G|/7-----6-----2--2--4--5-/7-----6-----2--2--4--5-| 
D|/7-----7-----3--3--3--3-/7-----7-----3--3--3--3-| 
A|-0-----0-----0--0--0--0--0-----0-----0--0--0--0-| 
D|------------------------------------------------| 



Part I-A: 
Guitar L 
d|------------------------------------------------| 
A|-------------7-/8--------------------7-/8-------| 
G|/9-----6-----------5--7-/9-----6-----------5--7-| 
D|------------------------------------------------| 
A|------------------------------------------------| 
D|------------------------------------------------| 



Part I-B: 
Guitar R 
d|------------------------------------------------| 
A|/10---------/12----12----10---------/12----12---| 
G|-------9--------10----10-------9--------10----10| 
D|------------------------------------------------| 
A|------------------------------------------------| 
D|------------------------------------------------| 



Part I-B: 
Guitar L 
d|------------------------------------------------| 
A|------------------------------------------------| 
G|------------------------------------------------| 
D|/7-----7-----3--3--3--3-/7-----7-----3--3--3--3-| 
A|-0-----0-----0--0--0--0--0-----0-----0--0--0--0-| 
D|------------------------------------------------| 



Part I-C: 
Guitar R 
d|------------------------------------------------| 
A|------------------------------------------------| 
G|------------------------------------------------| 
D|------------------------------------------------| 
A|(0)---------------------------------------------| 
D|-0----------------------------------------------| 



Part I-C: 
Guitar L 
d|------------------------------------------------| 
A|------------------------------------------------| 
G|------------------------------------------------| 
D|-0----------------------------------------------| 
A|-0----------------------------------------------| 
D|(0)---------------------------------------------| 



Part I-E: 
Guitar L 
d|------------------------------------------------| 
A|------------------------------------------------| 
G|/7-----6-----2--2--4--5-/7-----6-----2--2--4--5-| 
D|/7-----7-----3--3--3--3-/7-----7-----3--3--3--3-| 
A|-0-----0-----0--0--0--0--0-----0-----0--0--0--0-| 
D|------------------------------------------------| 



Part II-A: 
Guitars R + L 
d|------------------------------------------------| 
A|------------------------------------------------| 
G|-7-----6--------------5--------4----------------| 
D|-7-----7--------------5--------5----------------| 
A|-0-----0--------------0--------0----------------| 
D|------------------------------------------------| 
+ 
d|------------------------------------------------| 
A|----------------------4-------------------------| 
G|-5-----4--------------2-------------------------| 
D|-3-----5--------------2-------------------------| 
A|-0-----0--------------0-------------------------| 
D|------------------------------------------------| 



Part II-B: 
Guitar R 
d|------------------------------------------------| 
A|-7-----7----------------------------------------| 
G|-7-----6--------------9--------9----------------| 
D|-7-----7--------------10-------10---------------| 
A|-0-----0--------------0--------0----------------| 
D|------------------------------------------------| 
+ 
d|------------------------------------------------| 
A|----------------------7-----------7--7--7--7--7-| 
G|-9-----7--------------6-----------6--6--6--6--6-| 
D|-9-----9--------------7-----------7--7--7--7--7-| 
A|-0-----0--------------0-----------0--0--0--0--0-| 
D|------------------------------------------------| 
+ 
d|------------------------------------------------| 
A|----7--------7--------------10-------10-------10| 
G|-------6--------6--6-----------9--9-----9-------| 
D|-7--------7----------/10----------10-------10---| 
A|------------------------------------------------| 
D|------------------------------------------------| 
+ 
d|------------------------------------------------| 
A|----12-------12-------------7--------7--7--7\---| 
G|-10----10-------10----------6--6--6--6--6--6\---| 
D|-12-------12-------12-7--------7--7--7--7--7\---| 
A|----------------------------------0--0--0--0----| 
D|------------------------------------------------| 



Part II-B: 
Guitars L 
d|------------------------------------------------| 
A|------------------------------------------------| 
G|-7-----6--------------5--------4----------------| 
D|-7-----7--------------5--------5----------------| 
A|-0-----0--------------0--------0----------------| 
D|------------------------------------------------| 
+ 
d|------------------------------------------------| 
A|------------------------------------------------| 
G|-5-----4--------------2--------2--2--2--2--2--2-| 
D|-3-----5--------------2--------2--2--2--2--2--2-| 
A|-0-----0--------------0--------0--0--0--0--0--0-| 
D|------------------------------------------------| 
+ 
d|------------------------------------------------| 
A|------------------------------------------------| 
G|-7-----6--------------5--------4----------------| 
D|-7-----7--------------5--------5----------------| 
A|-0-----0--------------0--------0----------------| 
D|------------------------------------------------| 
+ 
d|------------------------------------------------| 
A|------------------------------------------------| 
G|-5-----4--------------2--------2--2--2--2--2----| 
D|-3-----5--------------2--------2--2--2--2--2----| 
A|-0-----0--------------0--------0--0--0--0--0----| 
D|------------------------------------------------| 

 
		  

Full key step upFull key step up
Half key step upHalf key step up
Half key step downHalf key step down
Full key step downFull key step down
hide glossary

See also:

tabs Aerosmith - Dream On tabs Guns N' Roses - Live and Let Die tabs The Doors - People Are Strange tabs Cheap Trick - The Flame tabs Creed - With arms wide open tabs Van Halen - Pretty Woman
e-chords

Other versions:

tabs Unwound - We Invent You
auto scroll beats size up size down change color hide chords drawings
tab show chords e-chords YouTube Clip e-chords hide all tabs e-chords go to top tab

share